Cifra Club

Aprenda

The Beginning... At Last

Black Label Society

Cifra: Principal (violão e guitarra)
Tom: D
Drop B tuning: low to high - B,A,D,G,B,e 
 
------------------------------------------------------------------------------- 
------------------------------------------------------------------------------- 
------------------------------------------------------------------------------- 
------------------------------------------------------------------------------- 
------------------------------------------------------------------------------- 
-0-10h12-12-10-0-10h12-12-10-0-10h12-10--10h12-12-10-0-10h12-12-10-0-10h12-10-- 
 intro riff 
 
------------------------------------------------------------------------------- 
------------------------------------------------------------------------------- 
------------------------------------------------------------------------------- 
-4-4-4-4-4-4-4-4-4-4-4-4-4-4-4-4-4-4-4-4-4-4-4-4------------------------------- 
-0h2-2-0h2-2-0h2-0h2-2-0h2-2-0h2-0h2-2-0h2-2-0h2------------------------------- 
-------------------------------------------------3h5-5-3h5-5-3h5-5-3h5-5-3h5-3~ 
 verse riff                                                                  ah 
 
------------------------------------------------------------------------------- 
------------------------------------------------------------------------------- 
------------------------------------------------------------------------------- 
-9/10-11/12-12-12-12-11--12--12\11-10\9-9-9-9-7--9----------------------------- 
-7/8--9-/10-10-10-10-10--10--10\9--8-\7-7-7-7-7--7----------------------------- 
------------------------------------------------------------------------------- 
 Chorus riff 
 
-------------------------------------|-------------------------|--------------- 
-------------------------------------|-------------------------|--------------- 
-------------------------------------|-------------------------|--------------- 
-9/10-11/12-12-12-12-11--12-12\11-10-|-------------------------|-9-9-9-9-9-9-10 
-7/8--9-/10-10-10-10-10--10-10\9--8--|-------------------------|-7-7-7-7-7-7-8- 
-------------------------------------|-5-3-0-5-3-0-5-3-0-5-3-0-|--------------- 
 Chorus riff (con't.)                  1st time                 2nd time 
 
----------------------------------------------|-------------------------------- 
----------------------------------------------|-------------------------------- 
----------------------------------------------|-4------------------------------ 
----------------------------------------------|-4------------------------------ 
----------------------------------------------|-2------------------------------ 
-3b--0--3b--0--0--3b--0--5fb~~--3--5br-5~-----|-------------------------------- 
 interlude riff                        ah       end riff with this/last time 
 
------------------------------------------------------------------------------- 
------------------------------------------------------------------------------- 
------------------------------------------------------------------------------- 
-----4-----4-----4-----4-----4------------------------------------------------- 
-0h2---0h2---0h2---0h2---0h2---2----repeat-until-solo-------------------------- 
------------------------------------------------------------------------------- 
 pre|-solo riff (clean tone) 
 
 
 
Solo: 
 
repeat 19x 
 
e|--10--p7--p5-----5--------------------------------------------- 
B|--------------7------------------------------------------------ 
G|--------------------------------------------------------------- 
D|--------------------------------------------------------------- 
A|--------------------------------------------------------------- 
B|--------------------------------------------------------------- 
 
on the 20th time: 
e|--5-----------------10-12-14-14~~~----------------------------- 
B|-----10----10-12-14-------------------------------------------- 
G|--------------------------------------------------------------- 
D|--------------------------------------------------------------- 
A|--------------------------------------------------------------- 
B|--------------------------------------------------------------- 
 
 
 
e|--14-14-----------10-12-14-14~~~~-----------10-12-14-17-14----- 
B|---------10-12-14------------------10-12-14-------------------- 
G|--------------------------------------------------------------- 
D|--------------------------------------------------------------- 
A|--------------------------------------------------------------- 
B|--------------------------------------------------------------- 
 
 
gliss up and down the neck... 
 
 
e|--------------------------------------------------------------- 
B|-10~~----x--10~~----x------------------------------------------ 
G|--------x----------x----9~~~~~~~~~~~~~~~~~~~~~~~~~~~~---------- 
D|-------x----------x-------------------------------------------- 
A|------x----------x--------------------------------------------- 
B|--------------------------------------------------------------- 
x = pick scratches 
 
 
e|--------------------------------------------------------------- 
B|--------------------------------------------------------------- 
G|--------------------------------------------------------------- 
D|--------------------------------------------------------------- 
A|--------------------------------------------------------------- 
B|-5-7-9--(4x)------7-9-10--(4x)-----9-10-11-12---(3x)----------- 
 
 
e|--------------------------------------------------------------- 
B|--------------------------------------------------------------- 
G|--------------------------------------------------------------- 
D|--------------------------------------------------------------- 
A|--------------------------------------------------------------- 
B|--11-12-13-14---12-13-14-15--(2x)---14-15-16-17--(2x)---------- 
 
 
 
e|--------------------------------------------------------------- 
B|--------------------------------------------------------------- 
G|--------------------------------------------------------------- 
D|--------------------------------------------------------------- 
A|--------------------------------------------------------------- 
B|--15-16-17-18--(2x)----x/////////------------------------------ 
                        slide down neck 
 
 
 
 
The rest of the solo is essentially the 7/10 "rock bend" (as described 
in the pentatonic hardcore video) mixed with the 10/10 interval. 
e|--7~~---------7~~---------------------------------------------- 
B|--10~---10~---10~*--------------------------------------------- 
G|--------10~---------------------------------------------------- 
D|--------------------------------------------------------------- 
A|--------------------------------------------------------------- 
B|---------------------------------------------------------------
Composição de Zakk Wylde
Colaboração e revisão:
  • André Coutinho
1.785 exibições
    • ½ Tom
    • A
    • Bb
    • B
    • C
    • Db
    • D
    • Eb
    • E
    • F
    • F#
    • G
    • Ab
  • Adicionar à lista

    0 comentários

    Mostrar mais comentários

    Conseguiu tocar?

    0 Tocaram 0 Ainda não

    Grave um vídeo tocando The Beginning... At Last e mande pra gente!

    00:00 / 00:00
    outros vídeos desta música
    repetir qualidade Automático
    Outros vídeos desta música
    00:00 / 00:00
    Automático
    OK