Cifra Club

Evil Woman

Black Sabbath

Cifra: Principal (violão e guitarra)
exibições 10.985
Tom: Cm
Introdução: Bb5  F5  Ab5  Eb5
            (Riff 1 - 4x)

E|-----------------------------------------------------|
B|----6~---4--3--4p3-----------------------------------|
G|-/5-----------------5~---3~--------------------------|
D|-----------------------------------------------------|
A|-----------------------------------------------------|
E|-----------------------------------------------------|


Primeira Parte:

  (Riff 1 - 8x)
I see the look of evil
In your eyes
Woman filling me all
Full of lies

(Riff 2 - 4x)
Sorrow will not change
Your shameful deeds

(Riff 1 - 4x)
You will pass
Someone else's bitter seed


Priumeiro Refrão:

Bb5   F5
Evil woman
            Ab5      Bb5       (Riff 1 - 2x)
Don't you play your games with me
Bb5   F5
Evil woman
            Ab5      Bb5       (Riff 1 - 2x)
Don't you play your games with me


Segunda Parte:

(Riff 1 - 8x)
Now I know just
What you're looking for
You want me to claim
This child you bore

(Riff 2 - 4x)
Well you know
That it must must not be

(Riff 1 - 4x)
 And you know the way
It's got to be


Segundo Refrão:

Bb5   F5
Evil woman
            Ab5      Bb5       (Riff 1 - 2x)
Don't you play your games with me
Bb5   F5
Evil woman
            Ab5      Bb5       F5
Don't you play your games with


Solo:

E|-----------------------------------------------------|
B|-3---5---5b----br5p3---------------------------------|
G|-3---5---5b----br5p3--5p3----------------------------|  (2x)
D|--------------------------5~-------------------------|
A|-----------------------------------------------------|
E|-----------------------------------------------------|

E|----------12----------------12-----15b17~--b17r15--12|
B|-15b17~------15p12-------12----12--------------------|
G|-------------------14b16-----------------------------|
D|-----------------------------------------------------|
A|-----------------------------------------------------|
E|-----------------------------------------------------|

E|-------12----------------12--------------------------|
B|-12h15----15p12----12h15----15p12--------------------|
G|----------------14----------------14-12h13p12h13p...-|
D|-----------------------------------------------------|
A|-----------------------------------------------------|
E|-----------------------------------------------------|

E|----------12-15p12--------------------------12-------|
B|-------12----------15b--br15p12----------12----15p12-|
G|-14b16--------------------------14-14b16-------------|
D|-----------------------------------------------------|
A|-----------------------------------------------------|
E|-----------------------------------------------------|

E|-----------------------------------------------------|
B|-----------------------------------------------------|
G|-14-12h13p12h13p...----------------------------------|
D|-----------------------------------------------------|
A|-----------------------------------------------------|
E|-----------------------------------------------------|

E|---------------------------12-12----------12---------|
B|------------------------12-------------12----------12|
G|----------------12-1416----------14b16-------14b16---|
D|-14p12----12h14--------------------------------------|
A|-------14--------------------------------------------|
E|-----------------------------------------------------|

E|-12--------------------------------------------------|
B|----15b17~-------------------------------------------|
G|-----------------------------------------------------|
D|-----------------------------------------------------|
A|-----------------------------------------------------|
E|-----------------------------------------------------|

E|-12----------------12----------------------12--------|
B|----15p12-------12----15p12-------------12----15p12--|
G|----------14b16-------------14-12h13h14--------------|
D|-----------------------------------------------------|
A|-----------------------------------------------------|
E|-----------------------------------------------------|

E|-----------------------------------------------------|
B|-----------------------------------------------------|
G|-14-12h13p12h13p...----------------------------------|
D|-----------------------------------------------------|
A|-----------------------------------------------------|
E|-----------------------------------------------------|


Terceiro Refrão:

Bb5   F5
Evil woman
            Ab5      Bb5       (Riff 1 - 2x)
Don't you play your games with me
Bb5   F5
Evil woman
            Ab5      Bb5       (Riff 1 - 2x)
Don't you play your games with me


Terceira Parte:

(Riff 1 - 8x)
Wickedness lies
In your poisoned lips
Your body moves just like
The crack of a whip

 (Riff 2 - 4x)
Blackness sleeps
On top of your slate bed

(Riff 1 - 4x)
Don't you wish
That you could see me dead


Final:

Bb5   F5
Evil woman
            Ab5      Bb5       (Riff 1 - 2x)
Don't you play your games with me
Bb5   F5
Evil woman
            Ab5      Bb5       (Riff 1 - 2x)
Don't you play your games with me
Acordes para:
    Composição: David Wagner / Dick Weigand / Larry Weigand Colaboração e revisão:
    • Vinícius Dias
    • Leonardo Lamesa

    0 comentários

    mostrar mais comentários

    Conseguiu tocar?

    2 tocaram 0 ainda não

    Grave um vídeo tocando Evil Woman e mande pra gente!

    00:00 / 00:00
    outros vídeos desta música
    repetir qualidade Automático
    Outros vídeos desta música
    00:00 / 00:00
    Automático
    Capítulos
    • Tocando a música
    • Apresentação / Equipamentos
    • Acordes da introdução
    • Tocando introdução
    • Introdução - Riff 1 (base)
    • Introdução (solo)
    • Acordes primeira parte
    • Tocando primeira parte
    • Primeira parte - Riff 2
    • Acordes do refrão
    • Tocando refrão
    • Ensinando refrão
    • Dicas da repetição - refrão 2
    • Tocando segunda parte - refrão 2
    • Ensinando segunda parte e refrão 2
    • Dicas do solo
    • Tocando solo
    • Solo - Parte 1 de 5
    • Solo - Parte 2 de 5
    • Solo - Parte 3 de 5
    • Solo - Parte 4 de 5
    • Solo - Parte 5 de 5
    • Encerramento
    OK