Cifra Club

Evil Woman

Black Sabbath

Tab de baixo: Principal
exibições 2.751
[Introdução]

Parte 1 de 2 
G|--------------------------------------------|
D|-8---6--------------------------------------|
A|---8---6\-----------------------------------|
E|--------------------------------------------|

Parte 2 de 2
G|--------------------------------------------|
D|--------------------------------------------|
A|--------1------------1-3--3--------1--------|
E|--1-3-3---3--3-1-3-3---------1-3-3---3------|

G|--------------------------------------------|
D|--------------------------------------------|
A|---------1-3--3-----------------------------|
E|-3-1-3-3------------------------------------|


[Primeira parte]

I see the look of evil in your eyes...

Parte 1 de 3 (2x)
G|--------------------------------------------|
D|--------------------------------------------|
A|--------1------------1-3--3--------1--------|
E|--1-3-3---3--3-1-3-3---------1-3-3---3------|

G|--------------------------------------------|
D|--------------------------------------------|
A|---------1-3--3-----------------------------|
E|-3-1-3-3------------------------------------|

Parte 2 de 3
G|--------------------------------------------|
D|-------5------------5-7-7--------5----------|
A|-5-7-7---7--7-5-7-7--------5-7-7---7--7-5---|
E|--------------------------------------------|

G|--------------------------------------------|
D|-----5-7-7----------------------------------|
A|-7-7----------------------------------------|
E|--------------------------------------------|

Parte 3 de 3
G|--------------------------------------------|
D|--------------------------------------------|
A|--------1----------- 1-3--3--------1--------|
E|--1-3-3---3--3-1-3-3---------1-3-3---3------|

G|--------------------------------------------|
D|--------------------------------------------|
A|---------1-3--3-----------------------------|
E|-3-1-3-3------------------------------------|


[Refrão]

Evil woman don't you play your games with me...

Parte 1 de 1 (2x)
G|--------------------------------------------|
D|-------------6-6-8-8------------------------|
A|---5-6-7-8-8--------------------1-3-4-5-----|
E|-6-------------------1-3--3-1-3---------1-3-|

G|--------------------------------------------|
D|--------------------------------------------|
A|---1----------------------------------------|
E|-3---3--3-----------------------------------|


[Segunda parte]

Now I know just what you're looking for...

Parte 1 de 3 (2x)
G|--------------------------------------------|
D|--------------------------------------------|
A|-------1-3-3-------1------------1-3-3-------|
E|-1-3-3-------1-3-3---3-3--1-3-3-------1-3-3-|

G|--------------------------------------------|
D|--------------------------------------------|
A|-1------------------------------------------|
E|---3-3--------------------------------------|

Parte 2 de 3
G|--------------------------------------------|
D|-------5------------5-7-7--------5----------|
A|-5-7-7---7--7-5-7-7--------5-7-7---7--7-5---|
E|--------------------------------------------|

G|--------------------------------------------|
D|--------------------------------------------|
A|-7-7-5--------------------------------------|
E|-------7-5\---------------------------------|

Parte 3 de 3
G|--------------------------------------------|
D|--------------------------------------------|
A|--------1----------- 1-3--3--------1--------|
E|--1-3-3---3--3-1-3-3---------1-3-3---3------|

G|--------------------------------------------|
D|--------------------------------------------|
A|---------1-3--3-----------------------------|
E|-3-1-3-3------------------------------------|


[Refrão 2]

Evil woman don't you play your games with me...

Parte 1 de 2 
G|--------------------------------------------|
D|-------------6-6-8-8------------------------|
A|---5-6-7-8-8--------------------1-3-4-5-----|
E|-6-------------------1-3--3-1-3---------1-3-|

G|--------------------------------------------|
D|--------------------------------------------|
A|---1----------------------------------------|
E|-3---3--3-----------------------------------|

Parte 2 de 2
G|--------------------------------------------|
D|-------------6-6--8-8-----------------------|
A|---5-6-7-8-8-----------8-8--8-8-8--8-8-8----|
E|-6------------------------------------------|

G|--------------------------------------------|
D|--------------------------------------------|
A|-8-8-8--8-8-8--8-8-8--8-8-8--8-8-8----------|
E|--------------------------------------------|


[Solo de Guitarra]

Parte 1 de 2 ( 2x )
G|--------------------------------------------|
D|--------------------------------------------|
A|--------1------------1-3--3--------1--------|
E|--1-3-3---3--3-1-3-3---------1-3-3---3------|

G|--------------------------------------------|
D|--------------------------------------------|
A|---------1-3--3-----------------------------|
E|-3-1-3-3------------------------------------|

Parte 2 de 2 ( 2x )
G|--------------------------------------------|
D|-------5------------5-7-7--------5----------|
A|-5-7-7---7--7-5-7-7--------5-7-7---7--7-5---|
E|--------------------------------------------|

G|--------------------------------------------|
D|-----5-7-7----------------------------------|
A|-7-7----------------------------------------|
E|--------------------------------------------|


[Refrão 3]

Evil woman don't you play your games with me...

Parte 1 de 1 (2x)
G|--------------------------------------------|
D|-------------6-6-8-8------------------------|
A|---5-6-7-8-8--------------------1-3-4-5-----|
E|-6-------------------1-3--3-1-3---------1-3-|

G|--------------------------------------------|
D|--------------------------------------------|
A|---1----------------------------------------|
E|-3---3--3-----------------------------------|


[Terceira parte]

Wickedness lies in your poisoned lips...

Parte 1 de 3 (2x)
G|--------------------------------------------|
D|--------------------------------------------|
A|-------1-3-3-------1------------1-3-3-------|
E|-1-3-3-------1-3-3---3-3--1-3-3-------1-3-3-|

G|--------------------------------------------|
D|--------------------------------------------|
A|-1------------------------------------------|
E|---3-3--------------------------------------|

Parte 2 de 3
G|--------------------------------------------|
D|-------5------------5-7-7--------5----------|
A|-5-7-7---7--7-5-7-7--------5-7-7---7--7-5---|
E|--------------------------------------------|

G|--------------------------------------------|
D|--------------------------------------------|
A|-7-7-5--------------------------------------|
E|-------7-5\---------------------------------|

Parte 3 de 3
G|--------------------------------------------|
D|--------------------------------------------|
A|--------1----------- 1-3--3--------1--------|
E|--1-3-3---3--3-1-3-3---------1-3-3---3------|

G|--------------------------------------------|
D|--------------------------------------------|
A|---------1-3--3-----------------------------|
E|-3-1-3-3------------------------------------|


[Refrão 4]

Evil woman don't you play your games with me...

Parte 1 de 1 ( 2x + fade out )
G|--------------------------------------------|
D|-------------6-6-8-8------------------------|
A|---5-6-7-8-8--------------------1-3-4-5-----|
E|-6-------------------1-3--3-1-3---------1-3-|

G|--------------------------------------------|
D|----------------------6-6-8-8---------------|
A|---1--------5-6-7-8-8----------------------1|
E|-3---3--3-6--------------------1-3-3-1-2-3--|

G|--------------------------------------------|
D|---------------------------------6-6-8-8----|
A|------------1-3-4-5----5-6-7-8-8------------|
E|-1-3--3-1-3----------6----------------------|

G|--------------------------------------------|
D|--------------------------------------------|
A|-------1---------1-3-3----------------------|
E|-1-3-3---3-3-1-3----------------------------|
Composição: David Wagner / Dick Weigand / Larry Weigand Colaboração e revisão:
  • Reginaldo Costa

0 comentários

mostrar mais comentários

Conseguiu tocar?

0 tocaram 0 ainda não

Grave um vídeo tocando Evil Woman e mande pra gente!

00:00 / 00:00
outros vídeos desta música
repetir qualidade Automático
Outros vídeos desta música
00:00 / 00:00
Automático
Capítulos
  • Tocando a música
  • Apresentação / Equipamentos
  • TAB - Introdução - Parte 1 de 2
  • TAB - Introdução - Parte 2 de 2
  • TAB - Primeira Parte - Parte 1 de 3
  • TAB - Primeira Parte - Parte 2 de 3
  • TAB - Primeira Parte - Parte 3 de 3
  • TAB - Refrão
  • TAB - Segunda parte - Parte 1 de 3
  • TAB - Segunda parte - Parte 2 de 3
  • TAB - Segunda parte - Parte 3 de 3
  • TAB - Refrão 2 - Parte 1 de 2
  • TAB - Refrão 2 - Parte 2 de 2
  • TAB - Solo de guitarra - Parte 1 de 2
  • TAB - Solo de guitarra - Parte 2 de 2
  • TAB - Refrão 4
  • Encerramento
OK