Cifra Club

Aprenda

Iron Man (Violão)

Black Sabbath

Cifra: Principal (violão e guitarra)
Tom: B
Riff 1: (2x)

( B5  D5  E5 ) 
( G5  F#5 ) 3x
( D5  E5 )

Riff - Primeira Parte:

E|---------------------------------------------------|
B|---------------------------------------------------|
G|---------------------------------------------------|
D|------------2-2--5-4-5-4-5-4-----2-2---------------|  2x 
A|---2-5-5---------------------5-5-------------------|
E|---------------------------------------------------|

Has he lost his mind?
Can he see or is he blind?

Can he walk at all,
Or if he moves will he fall?

Riff 1: (1x)

( B5  D5  E5 )
( G5  F#5 ) 3x
( D5  E5 )

Riff - Primeira Parte - Continuação:

E|---------------------------------------------------|
B|---------------------------------------------------|
G|---------------------------------------------------|
D|------------2-2--5-4-5-4-5-4-----2-2---------------| 2x
A|---2-5-5---------------------5-5-------------------|
E|---------------------------------------------------|

Is he alive or dead?
Has he thoughts within his head?

Well just pass him there
Why should we even care?

Riff 2:

E|---------------------------------------------------|
B|---------------------------------------------------|
G|---------------------------------------------------|  2x
D|---------------------------------------------------|
A|----2-2-5---2-2-1-0-0-0-------0-0-1----------------|
E|--------------------------0-4----------------------|

E|---------------------------------------------------|
B|---------------------------------------------------|
G|---------------------------------------------------|
D|---------------------------------------------------|
A|--2-2-5-2-2-2-0-0-0--------------------------------|
E|---------------------------------------------------|

Riff 1: (2x)

( B5  D5  E5 )
( G5  F#5 ) 3x
( D5  E5 )

Primeira Parte - Variação:

E|---------------------------------------------------|
B|---------------------------------------------------|
G|---------------------------------------------------|
D|------------2-2--5-4-5-4-5-4-----2-2---------------|  2x 
A|---2-5-5---------------------5-5-------------------|
E|---------------------------------------------------|

He was turned to steel
In the great magnetic field

Where he traveled time
For the future of mankind

Segunda Parte - Passagem:

E5
   Nobody wants him
D5
   He just stares at the world

Riff 3:
 
  B5
E|---------------------------------------------------|
B|---------------------------------------------------|
G|----------------2-3-4------------------------------|   2x
D|-------2-2-3-4-------------------------------------|
A|--2-5----------------------------------------------|
E|---------------------------------------------------|

E5
   Planning his vengeance
D5
   That he will soon unfold

Riff 3:
 
  B5
E|---------------------------------------------------|
B|---------------------------------------------------|
G|----------------2-3-4------------------------------|   2x
D|-------2-2-3-4-------------------------------------|
A|--2-5----------------------------------------------|
E|---------------------------------------------------|

Riff 1: (2x)

( B5  D5  E5 )
( G5  F#5 ) 3x
( D5  E5 )

Primeira Parte - Variação:

E|---------------------------------------------------|
B|---------------------------------------------------|
G|---------------------------------------------------|
D|------------2-2--5-4-5-4-5-4-----2-2---------------|  2x 
A|---2-5-5---------------------5-5-------------------|
E|---------------------------------------------------|

Now the time is here
For iron man to spread fear

Vengeance from the grave
Kills the people he once saved

Segunda Parte:

E5
   Nobody wants him
D5
   They just turn their heads

Riff 3:

   B5
E|---------------------------------------------------|
B|---------------------------------------------------|
G|----------------2-3-4------------------------------|   2x
D|-------2-2-3-4-------------------------------------|
A|--2-5----------------------------------------------|
E|---------------------------------------------------|

E5
   Nobody helps him
D5
   Now he has his revenge

Riff 3:

  B5
E|---------------------------------------------------|
B|---------------------------------------------------|
G|----------------2-3-4------------------------------|   2x
D|-------2-2-3-4-------------------------------------|
A|--2-5----------------------------------------------|
E|---------------------------------------------------|

E|---------------------------------------------------|
B|---------------------------------------------------|
G|-6-4-----------------------------------------------|   2x
D|-----6-5-4-2---------------------------------------|
A|-------------2-2h4-4-------------------------------|
E|---------------------------------------------------|
Composição de Ozzy Osburne / Tony Iommi
Colaboração e revisão:
  • J.p. Pomponet
10.697 exibições
    • ½ Tom
    • A
    • Bb
    • B
    • C
    • Db
    • D
    • Eb
    • E
    • F
    • F#
    • G
    • Ab
  • Adicionar à lista

    0 comentários

    Mostrar mais comentários

    Conseguiu tocar?

    7 Tocaram 1 Ainda não

    Grave um vídeo tocando Iron Man (Violão) e mande pra gente!

    00:00 / 00:00
    outros vídeos desta música
    repetir qualidade Automático
    Outros vídeos desta música
    00:00 / 00:00
    Automático

    Cifra Club Pro

    Aproveite o Cifra Club com benefícios exclusivos e sem anúncios
    7 dias grátis
    Cifra Club Pro
    Aproveite o Cifra Club com benefícios exclusivos e sem anúncios
    7 dias grátis
    OK