Cifra Club

Aprenda

Iron Man

Black Sabbath

Tab de baixo: Principal
Parte 1

G|--------------------------------------------|
D|-----------------5-4-5-4-5-4----------------|
A|--------5--5/7-7-------------5--5/7-7-------|
E|-15\--7-------------------------------------|

Primeira parte

Has he lost his mind?Can he see or is he blind? 

Parte 1 ( Tocar 5x )

G|--------------------------------------------|
D|------------5-4-5-4-5-4---------------------|
A|---5--5/7-7-------------5--5/7-7------------|
E|-7------------------------------------------|

Parte 2( tocar 2x )

G|--------------------------------------------|
D|--------------------7-5-7-5-7-5-------------|
A|-------5------------------------7-----------|
E|-5/7-7---7-6-5-5-5-0------------------------|

Parte 3

G|--------------------------------------------|
D|--------------------------------------------|
A|-------5------------------------------------|
E|-5/7-7---7-6-5-5-5--------------------------|

Introdução 2( tocar 2x )

G|--------------------------------------------|
D|------------5-4-5-4-5-4---------------------|
A|---5--5/7-7-------------5--5/7-7------------|
E|-7------------------------------------------|

Segunda parte

He was turned to steel,in the great magnetic... 

Parte 1 ( Tocar 2x )

G|--------------------------------------------|
D|------------5-4-5-4-5-4---------------------|
A|---5--5/7-7-------------5--5/7-7------------|
E|-7------------------------------------------|

Parte 2

G|-----9-7------------------------------------|
D|---9-----9-8-7----------4h5p4---------------|
A|-7--------------5-5-4/5-------5-------------|
E|--------------------------------------------|

Parte 3 ( tocar 2x )

G|--------------------------------------------|
D|--------------------7-8-9-------------------|
A|-----------7--7-8-9-------------------------|
E|-7-7--7-10----------------------------------|

Parte 4

G|-----9-7------------------------------------|
D|---9-----9-7-5-7-5---------4h5p4------------|
A|-7-----------------5-5-4/5-------5----------|
E|--------------------------------------------|

Parte 5 ( tocar 2x )

G|--------------------------------------------|
D|--------------------7-8-9-------------------|
A|-----------7--7-8-9-------------------------|
E|-7-7--7-10----------------------------------|

Introdução 3( tocar 2x )

G|--------------------------------------------|
D|------------5-4-5-4-5-4---------------------|
A|---5--5/7-7-------------5--5/7-7------------|
E|-7------------------------------------------|

Terceira parte 

Now the time is here,for iron man to spread...

Parte 1 ( Tocar 2x )

G|--------------------------------------------|
D|------------5-4-5-4-5-4---------------------|
A|---5--5/7-7-------------5--5/7-7------------|
E|-7------------------------------------------|

Parte 2

G|-----9-7------------------------------------|
D|---9-----9-7-5-7-5---------4h5p4------------|
A|-7-----------------5-5-4/5-------5----------|
E|--------------------------------------------|

Parte 3 ( tocar 2x )

G|--------------------------------------------|
D|--------------------7-8-9-------------------|
A|-----------7--7-8-9-------------------------|
E|-7-7--7-10----------------------------------|

Parte 4

G|-----9-7-------7-9--------------------------|
D|---9-----9-7-9-------------4h5p4------------|
A|-7-----------------5-5-4/5-------5----------|
E|--------------------------------------------|

Parte 5 ( tocar 2x )

G|--------------------------------------------|
D|--------------------7-8-9-------------------|
A|-----------7--7-8-9-------------------------|
E|-7-7--7-10----------------------------------|
solo guitarra 

Parte 1 (tocar 2x )

G|--------------------------------------------|
D|-11-9---------------------------------------|
A|-------11-10-9--7---------------------------|
E|------------------7-7-9-9-------------------|

Parte 2

G|--------------------------------------------|
D|--------------------------------------------|
A|--------------------------------------------|
E|-9-9-9-9--9-9-7-8--9-9-9-9--9-9-9-7---------|

Parte 3

G|--------------------------------------------|
D|---------------9-----11-11-11-11-11-11-11-11|
A|-------7--9-11---11-------------------------|
E|-9-9-9--------------------------------------|

Parte 4

G|----11-9------------------------------------|
D|-11------11-9-------------------------------|
A|--------------11-9-7-9-7-------7------------|
E|-------------------------9-7-9--------------|

Parte 5

G|--------------------------------------------|
D|------------------------------------9-------|
A|-------------------------7---7-9-11---------|
E|-9-9-9-9--9-9-9-9-7-8--9---9----------------|

Parte 6

G|--------------------------------------------|
D|-11-11-11-11--11-11-11-9--------------------|
A|--------------------------------------------|
E|--------------------------------------------|

G|--------------------------------------------|
D|-11-9-10-11-9-10-11-------------------------|
A|--------------------------------------------|
E|--------------------------------------------|

Parte 7

G|--------------------------------------------|
D|--------------------------------------------|
A|-11-9-7-9-7---------------------------------|
E|------------9-7-8--9-9-9-9--9-7-8-----------|

Parte 8

G|--------------------------------------------|
D|--------------------------------------------|
A|--------------------------------------------|
E|-9-9-9-9--9-9-9-9--9-9-9-9--9-9-9-----------|

Parte 9

G|--------------------------------------------|
D|-9/11-11-11-11--11-11-11-11-----------------|
A|--------------------------------------------|
E|--------------------------------------------|

Parte 10

G|--------------------------------------------|
D|-11-11-11-11--11-11-11-11-------------------|
A|--------------------------------------------|
E|--------------------------------------------|

Ponte pra voltar ao tema.

Parte 11 ( tocar 2x )

G|--------------------------------------------|
D|-11-9---------------------------------------|
A|-------11-10-9--7---------------------------|
E|------------------7-7-9-9-------------------|

Parte 12( tocar 4x )

G|--------------------------------------------|
D|--------------------7-8-9-------------------|
A|-----------7--7-8-9-------------------------|
E|-7-7--7-10----------------------------------|

Introdução 4( tocar 2x )

G|--------------------------------------------|
D|------------5-4-5-4-5-4---------------------|
A|---5--5/7-7-------------5--5/7-7------------|
E|-7------------------------------------------|

Quarta parte

Heavy boots of lead,fills his victims full of..

Parte 1 ( Tocar 2x )

G|--------------------------------------------|
D|------------5-4-5-4-5-4---------------------|
A|---5--5/7-7-------------5--5/7-7------------|
E|-7------------------------------------------|

Parte 2 ( Tocar 2x )

G|--------------------------------------------|
D|--------------------7-5-7-5-7-5-------------|
A|-------5------------------------7-----------|
E|-5/7-7---7-6-5-5-5-0------------------------|

Parte 3

G|--------------------------------------------|
D|--------------------------------------------|
A|-------5------------------------------------|
E|-5/7-7---7-6-5-5-5--------------------------|

Parte final

Parte 1 ( Da parte 2 a parte 5 tocar 2x)

G|--------------------------------------------|
D|--------------------------------------------|
A|-7-7-7-7-7-7-7-7-7.........................-|
E|--------------------------------------------|

Parte 2(Tocar da parte 2 a parte 5 - 2x)

G|--------------------------------------------|
D|--------------------------------------------|
A|-7-7-7-7--7-7-7-7--7-7-7-7--7-7-7-7---------|
E|--------------------------------------------|

Parte 3

G|--------------------------------------------|
D|--------------------------------------------|
A|-5-5-5-5--5-5-5-5--5-5-5-5--5-5-5-5---------|
E|--------------------------------------------|

Parte 4

G|--------------------------------------------|
D|--------------------------------------------|
A|-4-4-4-4--4-4-4-4--4-4-4-4--4-4-4-4---------|
E|--------------------------------------------|

Parte 5

G|--------------------------------------------|
D|--------------------------------------------|
A|-3-3-3-3--3-3-3-3--3-3-3-3--3-3-3-3---------|
E|--------------------------------------------|

Parte 6 ( tocar 4x )

G|--------------------------------------------|
D|--------------------------------------------|
A|-7-5-7--7-7-7-7-7--7-7-7-7-7--5-4-5---------|
E|--------------------------------------------|

G|--------------------------------------------|
D|--------------------------------------------|
A|-5-5-5-5-5--5-5-5-5-5--4-3-4----------------|
E|--------------------------------------------|

G|--------------------------------------------|
D|--------------------------------------------|
A|-4-4-4-4-4--4-4-4-4-4--3-2-3----------------|
E|--------------------------------------------|

G|--------------------------------------------|
D|--------------------------------------------|
A|-3-3-3-3-3--3-3-3-3-3-----------------------|
E|--------------------------------------------|

Parte 7 

G|--------------------------------------------|
D|--------------------------------------------|
A|-7-5-7--7-7-7-7-7--7-7-7-7-7--5-4-5---------|
E|--------------------------------------------|

G|--------------------------------------------|
D|--------------------------------------------|
A|-5-5-5-5-5--5-5-5-5-5--4-3-4----------------|
E|--------------------------------------------|

G|--------------------------------------------|
D|--------------------------------------------|
A|-4-4-4-4-4--4-4-4-4-4--3-2------------------|
E|---------------------------3-2-3-2----------|

Parte 8

G|--------------------------------------------|
D|--------------------------------------------|
A|-7-5-7--7-7-7-7-7--7-7-7-7-7--5-4-5---------|
E|--------------------------------------------|

G|--------------------------------------------|
D|--------------------------------------------|
A|-5-5-5-5-5--5-5-5-5-5--4-3-4----------------|
E|--------------------------------------------|

G|--------------------------------------------|
D|-------------------------------------5-7----|
A|-4-4-4-4-4--4-4-4-4-4--3-2---------7--------|
E|---------------------------3-2-3-2----------|
Composição de Bill Ward / Geezer Butler / Ozzy Osbourne / Tony Iommi
Colaboração e revisão:
  • CRISTIANO VILARINO
  • Reginaldo Costa
  • blanka
151.207 exibições

0 comentários

Mostrar mais comentários
00:00 / 00:00
outros vídeos desta música
repetir qualidade Automático
Outros vídeos desta música
00:00 / 00:00
Automático
Capítulos
  • Tocando a música
  • Dicas Iniciais / Equipamentos
  • Introdução
  • Primeira Parte - Parte 1 de 3
  • Primeira Parte - Parte 2 de 3
  • Primeira Parte - Parte 3 de 3
  • Introdução 2
  • Segunda Parte - Parte 1 de 5
  • Segunda Parte - Parte 2 de 5
  • Segunda Parte - Parte 3 de 5
  • Segunda Parte - Parte 4 de 5
  • Segunda Parte - Parte 5 de 5
  • Dicas Terceira Introdução
  • Terceira Parte - Parte 1 de 5
  • Terceira Parte - Parte 2 de 5
  • Terceira Parte - Parte 3 de 5
  • Terceira Parte - Parte 4 de 5
  • Terceira Parte - Parte 5 de 5
  • Solo de Guitarra - Parte 1 de 12
  • Solo de Guitarra - Parte 2 de 12
  • Solo de Guitarra - Parte 3 de 12
  • Solo de Guitarra - Parte 4 de 12
  • Solo de Guitarra - Parte 5 de 12
  • Solo de Guitarra - Parte 6 de 12
  • Solo de Guitarra - Parte 7 de 12
  • Solo de Guitarra - Parte 8 de 12
  • Solo de Guitarra - Parte 9 e 10 de 12
  • Solo de Guitarra - Parte 11 de 12
  • Quarta Parte - Parte 1 de 3
  • Quarta Parte - Parte 2 de 3
  • Quarta Parte - Parte 3 de 3
  • Final - Parte 1 de 8
  • Final - Parte 2 de 8
  • Final - Parte 3 de 8
  • Final - Parte 4 de 8
  • Final - Parte 5 de 8
  • Final - Parte 6 de 8
  • Final - Parte 7 de 8
  • Final - Parte 8 de 8
  • Encerramento
  • Ficha técnica / Erros de gravação

Cifra Club Pro

Aproveite o Cifra Club com benefícios exclusivos e sem anúncios
Cifra Club Pro
Aproveite o Cifra Club com benefícios exclusivos e sem anúncios
OK