Cifra Club

Aprenda

Iron Man

Black Sabbath

Tab de baixo: Versão 11
Afinação - E#A#D#G#

(riff A)
||-----------------------------------
||--------------4-3-4-3-4-3----------
||-1--4---4-6-6-------------4-4-6-6--
||-----------------------------------
(riff B)
||-----------------------------------
||-----------------------------------
||--1--1--4--1--0--------------------
||-----------------4-4-4--1/3-3-3-4--
[Riff C1]              [Riff C2]
 1x                  2x
||----------------|------------------------1-2-3-
||----------------|----------------1-1-2-3-------
||--6--------4----|-1-1-1-4--1-2-3---------------
||----------------|------------------------------
[Riff D1]                   [Riff D2]
 2x                       7x
||--5-3-----------------|--------------------------------
||------5-3-1-----------|--------------------------------
||------------3-1-1-3-3-|-1-3-3-3-3-3-3-3-3-1-3-3-4-3----
||----------------------|--------------------------------
[Riff E1]                  [Riff E2]
8x
||----------------|---|-----------------------------------
||----------------|---|-3-4-3-4-3-------------------------
||-6-----4----3---|-2-|-----------4-----------------------
||----------------|---|-----------------------------------

Intro   (A 1x)
Verso 1 (A 5x) "Has he lost his mind..."
        (B 3x)
        (A 2x)
Verso 2 (A 2x) "He was turned to steel..."
Refrão  (C1&2 2x) "Nobody wants him..."
        (A 2x)
Verso 3 (A 2x) "Now the time is here..."
Refrão  (C1&2 2x) "Nobody wants him..."
        (D1&2 1x)
        (D1 2x)
        (A  2x)
Verso 4 (A 2x) "Heavy boots of lead..."
        (B 3x)  "Agaaaaaaaaaaaaaaaaaaaaaaaaaaiiiiiinnnnnnn...."
Outro   (E1&E2 1x)
Composição de Bill Ward / Geezer Butler / Ozzy Osbourne / Tony Iommi
Colaboração e revisão:
  • victor neres
351 exibições

0 comentários

Mostrar mais comentários
00:00 / 00:00
outros vídeos desta música
repetir qualidade Automático
Outros vídeos desta música
00:00 / 00:00
Automático

Cifra Club Pro

Aproveite o Cifra Club com benefícios exclusivos e sem anúncios
7 dias grátis
Cifra Club Pro
Aproveite o Cifra Club com benefícios exclusivos e sem anúncios
7 dias grátis
OK