Notificações Amigos pendentes

      Black Sabbath

      Iron Man

      24.562 exibições
      Tom: A
      
      |------------------------------------------    
      |------------------------------------------   *this is     
      |------------------------------------------   the rhythm
      |----7--7/9-9--12\11-12\11-12\11--7-7/9-9--               
      |-9--5--5/7-7--10\9--10\9--10\9---5-5/7-7--
      |-7----------------------------------------
      
      repeat once
      
      
      |------------------------------------------
      |------------------------------------------
      |------------------------------------------
      |------------------------------------------
      |----5--5h7--7--10\9-10\9-10\9--5--5h7--7--
      |-7----------------------------------------
      
       has he lost     can  he  see   or is  blind
               his                        he
                mind
      
      repeat throughout the verse
      rhythm once
      
      |------------------------------------------
      |------------------------------------------
      |------------------------------------------
      |------------------------------------------
      |----5--5h7--7--10\9-10\9-10\9--5--5h7--7--
      |-7----------------------------------------
      
      
      Is he live or dead? Has he thoughts within his head, ect.
      repeat throughout the verse
      
      * 1st riff
      
      |------------------------------------------------------
      |------------------------------------------------------
      |------------------------------------------------------
      |------------------------------------------------------
      |-----5-------------------------5----------------------
      |-7-7---7-6-5-5-5-0h4-5-5-6-7-7---7-6-5-5-5-0h4-5-5-6--
      
      
      *end of 1st riff
      
      |-----------------
      |-----------------
      |-----------------
      |-----------------
      |-----5-----------
      |-7-7---7-6-5-5-5-
      
      
      rhythm twice
      
      
      |------------------------------------------
      |------------------------------------------
      |------------------------------------------
      |------------------------------------------
      |----5--5h7--7--10\9-10\9-10\9--5--5h7--7--
      |-7----------------------------------------
      
      
      He was turned to steel in the great magnetic field, ect.
      
      *bridge
      
      |----------------------------------------------------
      |----------------------------------------------------
      |----------------------------------------------------
      |-9------------------7-------------------------------
      |-7------------------5-------------------------------
      |----------------------------------------------------
      
         Nobody wants him    he just stares at the -
      
      
      |------------------------------------------------------
      |------------------------------------------------------
      |------------------------------------------------------
      |---------------------7-8-9----------------------7-8-9-
      |-9--9-------7--7-8-9--------9--9-------7--7-8-9-------
      |-7--7--7-10-----------------7--7--7-10----------------
      
      world
      
      repeat once -
       Planning his vengance that he will soon unfurl
      
      rhythm twice
      
      
      |------------------------------------------
      |------------------------------------------
      |------------------------------------------
      |------------------------------------------
      |----5--5h7--7--10\9-10\9-10\9--5--5h7--7--
      |-7----------------------------------------
      
      
      Now the time is here for Iron Man to spread fear, ect.
      
      bridge - 
      Nobody wants him, they just turn their heads, ect.
      
      *lead*
      
      |---------------------------------------------
      |---------------------------------------------
      |---------------------------------------------
      |-11-9-------------------11-9-----------------
      |------11-10-9-7--------------11-10-9-7-------
      |----------------7-7/9-9----------------7-7h9-
      
      
      |----------------------------------------------------------
      |----------------------------------------------------------
      |----------------------------------9-9---------9-9---------
      |-------------------------9-9-9h11-----11p9--------11p9----
      |-----7h9-9p7----7h9-9/11-------------------11----------11-
      |-7h9---------9h-------------------------------------------
      
      
      |--------------9-------------------------------------------
      |-----------/9---12-9-----------------------9-12p9----9----
      |---------------------11-9-9-----------9h11--------11------
      |-9h11-11--------------------11-9-9h11---------------------
      |----------------------------------------------------------
      |----------------------------------------------------------
      
      
      |------------------------9--------/14-14-14-14p12----------
      |-12p9----9-12p9----9-12---12-9-9-----------------14h-14---
      |------11--------11----------------------------------------
      |----------------------------------------------------------
      |----------------------------------------------------------
      |----------------------------------------------------------
      
      
      |--------9-9-----------------------------------------------
      |-12-14------12p9-----9-12-12p9----------------------------
      |-----------------11h-----------11h-11p9-----9-9-----------
      |----------------------------------------11h-----11p9------
      |-----------------------------------------------------11---
      |----------------------------------------------------------
      
      
      |----------------------------------------------------------
      |----------------------------------------------------------
      |------9-9---------------9---------------------------------
      |-9h11-----11p9-----9h11---9-9h11-9h11-9h11-9h11-9h11-11---
      |---------------11h----------------------------------------
      |----------------------------------------------------------
      
      
      |----------------------------------------------------------
      |----------------------------------------------------------
      |----------------------------------------------------------
      |-9h11-9h11-9h11-9h11-9h11-11-11-9-----------------11-9----
      |----------------------------------11-10-9-7------------11-
      |--------------------------------------------7-7/9---------
      
      
      |--------------
      |--------------
      |--------------
      |--------------
      |-10-9-7-------
      |--------7-7/9-
      
      
      repeat 2nd 1/2 of bridge twice =
      
      |------------------------------------------------------
      |------------------------------------------------------
      |------------------------------------------------------
      |---------------------7-8-9----------------------7-8-9-
      |-9--9-------7--7-8-9--------9--9-------7--7-8-9-------
      |-7--7--7-10-----------------7--7--7-10----------------
      
      
      rhythm twice
      
      
      |------------------------------------------
      |------------------------------------------
      |------------------------------------------
      |------------------------------------------
      |----5--5h7--7--10\9-10\9-10\9--5--5h7--7--
      |-7----------------------------------------
      
        Composição: Bill Ward / Geezer Butler / Ozzy Osbourne / Tony IommiColaboração e revisão:
        • Leo_chessmaster

        Comentários 3

        140 .
        • Victor Victor: Em 29/01/2014 22:50

          Como que faz o efeito da intro com ponte floyd rose?

        • marcelo.pavani.58 marcelo.pavani.58: Em 16/01/2014 20:03

          bugo

        • kaique.gama.5 kaique.gama.5: Em 12/01/2014 22:50

          meu n consigo ver a cifra principal de quase nada oq está havendo cifra podem resolver??

        140 cancelar
        0:00 / 0:00
        Esta versão de cifra não é usada na videoaula. Exiba a cifra correta.
        1 versão de bateria exibições contribuição e correção
        1 versão de gaita exibições contribuição e correção
        play/pausefechar subir/descer velocidade
        6ª corda E5ª corda A4ª corda D3ª corda G2ª corda B1ª corda E
          acordes
          publicidade
          fechar
          ok