Cifra Club

The Thrill Of It All

Black Sabbath

Tab de baixo: Principal
exibições 573
     ||-----------------------------------|---------------------------
     ||-----------------------------------|-------------2--4--2-------
     ||-----------------------0--2--0-----|------2---/4---------4-2-4-
     ||-----------------0--2-----------0--|--2------------------------

     --------------------------||----------------------|--------------
     ------------2--4--2-------||----------------------|-----10-------
     -----2---/4---------4-2-4-||----------------------|--------------
     --2-----------------------||--5---4---5---4---5-4-|--8-----10h12-

     -----------------------------------------------------------------
     ------------10----10-12b(13)-10-------10-10-10--------------10---
     -12-10---12----12---------------12--------------------10-12----12
     ------------------------------------8-----------10h12------------

     --------------||------------------------------------|----------|-
     -12-10--------||------------------------------------|-3p2-3p2--|-
     -------12-10--||-3-5-5-5-5-5-0-2----3-5-5-5-5-5-0-2-|----------|-
     --------------||------------------------------------|----------|-

0 comentários

    mostrar mais comentários

    Conseguiu tocar?

    0tocaram0ainda não

    Grave um vídeo tocando The Thrill Of It All e mande pra gente!

    00:00 / 00:00
    outros vídeos desta música
    repetirqualidadeautomática
    Outro vídeos desta música
      00:00 / 00:00
      automática
      OK