Cifra Club

Aprenda

Beautiful Remains

Black Veil Brides

Cifra: Principal (violão e guitarra)
Tom: G
Intro:
E|----------------------------------------------------------------|
B|----------------------------------------------------------------|
G|--10--12p10--9------10--9-----------------9--12--10--9----------|
D|----------------12---------12--10--8--11----------------12--11--|
A|----------------------------------------------------------------|
E|----------------------------------------------------------------|

E|--------------------------------------------------------|
B|--------------------------------------------------------|
G|--------------------------------------------------------|
D|--------------------------------------------------------|
A|--------8-----7--------8--------7-----10--7h8p7---------|
E|--0--0-----0-----0--0-----0--0-----0-------------10--8--|

E|--------------------------------------x-|
B|--------------------------------------x-|
G|--------------------------------------x-|
D|--------------------------------------x-|
A|--------8-----7--------8--------7-----x-|
E|--8--8-----8-----8--8-----8--8-----8--x-|

E|--------------------|
B|--------------------|
G|--------------------|
D|--------------------|
A|--7--8--8-----------|
E|-----------7--8--7--|

E|--------------------------------------------------------|
B|--------------------------------------------------------|
G|--------------------------------------------------------|
D|--------------------------------------------------------|
A|--------8-----7--------8--------7-----10--7h8p7---------|
E|--0--0-----0-----0--0-----0--0-----0-------------10--8--|

E|---------------------------------------------------|
B|---------------------------------------------------|
G|---------------------------------------------------|
D|--------------------------------------10--8--7-----|
A|--------8-----7--------8--------7---------------10-|
E|--8--8-----8-----8--8-----8--8-----8---------------|

E|----------------------------------------------------------------|
B|----------------------------------------------------------------|
G|----------------------------------------------------------------|
D|----------------------------------------------------------------|
A|----------8------7----------8----------7------10--7h8p7---------|
E|--10--10-----10-----10--10-----10--10-----10-------------10--8--|

E|------------------------------------------------|
B|------------------------------------------------|
G|------------------------------------------------|
D|--5----5--5--5--5--5--5----------------------0--|
A|--5----5--5--5--5--5--5----7--8--8-----------0--|
E|--5----5--5--5--5--5--5-------------7--8--7--0--|

Solo:
E|------------------------------------------------------------------|
B|--15------------------------------15------------------------------|
G|------14------14------14------14------14------14------14------14--|
D|----------15------12------15--------------15------12------15------|
A|------------------------------------------------------------------|
E|------------------------------------------------------------------|

E|------------------------------------------------------------------|
B|------------------------------------------------------------------|
G|--15------------------------------15------------------------------|
D|------17--16--17------17--16--17------17--16--17------17--16--17--|
A|------------------17------------------------------17--------------|
E|------------------------------------------------------------------|

E|------------------------------------------------------------------|
B|--14------------------------------14------------------------------|
G|------12------12------12------12------12------12------12------12--|
D|----------15------14------15--------------15------14------15------|
A|------------------------------------------------------------------|
E|------------------------------------------------------------------|

E|------------------------------------------------------------------|
B|--15------------------------------15------------------------------|
G|------14------14------14------14------14------14------14------14--|
D|----------15------12------15--------------15------12------15------|
A|------------------------------------------------------------------|
E|------------------------------------------------------------------|

E|-----|
B|-----|
G|-----|
D|--8--|
A|--8--|
E|--8--|

E|-----------------------------------|
B|-----------------------------------|
G|--10--12p10--9------10--9----------|
D|----------------12---------12--10--|
A|-----------------------------------|
E|-----------------------------------|

E|-----|
B|-----|
G|-----|
D|--0--|
A|--0--|
E|--0--|

E|----------------------------------------------|
B|--10h13p10------10------------------8*--6-----|
G|------------12------12--10--12--10---------7--|
D|----------------------------------------------|
A|----------------------------------------------|
E|----------------------------------------------|

E|-----------------|
B|-----------------|
G|--10--12--9--10--|
D|-----------------|
A|-----------------|
E|-----------------|

E|-------------------------------------------------------|
B|--10h13p10------10----------------------8*--6--10/15~~~|
G|------------12------12--10--12--11--10-----------------|
D|-------------------------------------------------------|
A|-------------------------------------------------------|
E|-------------------------------------------------------|

E|--------------------------|
B|------18--18--17--13--15--|
G|--17----------------------|
D|--------------------------|
A|--------------------------|
E|--------------------------|

E|--13--10--8-(x4)----17--13--10-(x4)----13--10--8-(x4)-| Tapped
B|------------------------------------------------------|
G|------------------------------------------------------|
D|------------------------------------------------------|
A|------------------------------------------------------|
E|------------------------------------------------------|

E|----------13--12---------------------------------------------|
B|------13----------13/15~~~~--13--------------19h21h22--22~~~~|
G|--14-----------------------------14--13--19------------------|
D|-------------------------------------------------------------|
A|-------------------------------------------------------------|
E|-------------------------------------------------------------|

E|--15h17p15------15--18--17--18--17--15------|
B|------------18--------------------------18--|
G|--------------------------------------------|
D|--------------------------------------------|
A|--------------------------------------------|
E|--------------------------------------------|

E|--------------------------------------------------|
B|--15h17p15--14--15--18--15h18p15------15--17--18--|
G|----------------------------------17--------------|
D|--------------------------------------------------|
A|--------------------------------------------------|
E|--------------------------------------------------|
Composição de Andy Six
Colaboração e revisão:
  • Banda
1.979 exibições
    • ½ Tom
    • A
    • Bb
    • B
    • C
    • Db
    • D
    • Eb
    • E
    • F
    • F#
    • G
    • Ab
  • Adicionar à lista

    0 comentários

    Mostrar mais comentários

    Conseguiu tocar?

    1 Tocaram 1 Ainda não

    Grave um vídeo tocando Beautiful Remains e mande pra gente!

    00:00 / 00:00
    outros vídeos desta música
    repetir qualidade Automático
    Outros vídeos desta música
    00:00 / 00:00
    Automático

    Cifra Club Pro

    Aproveite o Cifra Club com benefícios exclusivos e sem anúncios
    Cifra Club Pro
    Aproveite o Cifra Club com benefícios exclusivos e sem anúncios
    OK