Cifra Club

Aprenda

Rebel Yell

Black Veil Brides

Cifra: Principal (violão e guitarra)
Tom: F (forma dos acordes no tom de G) Afinação: D G C F A D
Afinação| Drop C

Intro

------------------------------------------------------------------|
------------------------------------------------------------------|
------------------------------------------------------------------|
--(2------------7-----5--7--7------5--7--7------5---7-------------|
--(0--3-0)--------7-------------7------------7-----------5--------|
------3-0)--------------------------------------------------------|


--8--------------------------------------------------------------|
-10--------------------------------------------------------------|
--9--------------------------------------------------------------|
-----------------------------------------------------------------|
-----------------------------------------------------------------|
-----------------------------------------------------------------|


Toque 4 x

------------------------------------------------------------------------|
-------------10----------------------------8----------------------------|
--9---7----------9--7-----7---9---7---------9--7-----7------------------|
----------9-------------9--------------9-------------9------------------|
------------------------------------------------------------------------|
------------------------------------------------------------------------|


------------------------------------------------------------------------|
------------------------------------------------------------------------|
--------------9-----------------------------7---------------------------|
--10--9--7-----10--9--7--9--10--9--7-----10--9--7--9--------------------|
------------------------------------------------------------------------|
------------------------------------------------------------------------|


----------------------------------------------------------------------------------|
----------------------------------------------------------------------------------|
----------------------------------------------------------------------------------|
-----5-------------2--~~~~~~~~~-------------------Pick slide----------------------|
-----3-----5------0---~~~~~~~~~~~---------------Pick slide------------------------|
-----------5----------------------------------------------------------------------|


Verso

-----------------------------------------------------------------------------------------------|
-----------------------------------------------------------------------------------------------|
-----------------------------------------------------------------------------------------------|
--2---(Strum triplets)---(2-3--2--0------------------------(Repeat---------------5-------------|
--0--------------------------------------3--2-0)------3-------lick)-------0--------3---5-------|
----------------------------------------------------------3--------------------0------------5--|


---12----------------12-------15-----------------12----------------12--------15----------|
--------13------13----------------------------------13------13----------13---------------|
-------------14-----------14----------14-----------------14--------------------------14--|
-----------------------------------------------------------------------------------------|
-----------------------------------------------------------------------------------------|
-----------------------------------------------------------------------------------------|


--15-------------------15-------18---------------------------------------------------------|
--------17-------17---------------------------------13----------------13--------15---------|
-------------17-------------17------17-----------------14------14--------------------------|
---------------------------------------------------------------14-------------14-------14--|
-------------------------------------------------------------------------------------------|
-------------------------------------------------------------------------------------------|


Refrão

------------------------------------------------------------------------|
------------------------------------------------------------------------|
------------------------------------------------------------------------|
--2----3----------------------------------------------------------------|
--0----5-----3----5-----------------------------------------------------|
--------------3----5----------------------------------------------------|


-------12---10----------------------------------------------------------|
--10-------------10--12----13----12-----10------------------------------|
------------------------------------------------------------------------|
------------------------------------------------------------------------|
------------------------------------------------------------------------|
------------------------------------------------------------------------|


------------------------------------------------------------------------|
-------13--12--13---10--------------------------------------------------|
--10------------------------12--10--------------------------------------|
------------------------------------------------------------------------|
------------------------------------------------------------------------|
------------------------------------------------------------------------|



REpetir várias vezes antes do solo


------------------------------------------------------------------------|
-------------10----------------------------8----------------------------|
--9---7----------9--7-----7---9---7---------9--7-----7------------------|
----------9-------------9--------------9-------------9------------------|
------------------------------------------------------------------------|
------------------------------------------------------------------------|


-------------------------------------------------------------------------|
-------------------------------------------------------------------------|
-------------------------------------------------------------------------|
-----5--------------2----~~~~~~~~~------------2--2---------2-------------|
-----3----5--------0----~~~~~~~~~------------0--0---------0--------------|
----------5--------------------------------------------------------------|

SOLO

POWER CHORDS durante o solo

------------------------------------------------------------------------|
------------------------------------------------------------------------|
------------------------------------------------------------------------|
--2--2----5-------------------------------------------------------------|
--0--0----3---3----5----------------------------------------------------|
----------------3---5---------------------------------------------------|


--18b-----18b----18----15---17~~~~~~------------------------------------|
------------------------------------------------------------------------|
------------------------------------------------------------------------|
------------------------------------------------------------------------|
------------------------------------------------------------------------|
------------------------------------------------------------------------|


-------15--17---15---------15----------------------------------------------------|
--17-------------------17--------17---15---17---15-------15----------------------|
----------------------------------------------------------17--------17----14-----|
---------------------------------------------------------------------------------|
---------------------------------------------------------------------------------|
---------------------------------------------------------------------------------|


-----------------------------------------------------------------------------------|
-----------------------------------------------------------------------------------|
--17--14-------14------------------------------------------------------------------|
------------17-------17--14--17--14-------14---------------------------------------|
------------------------------------------17-------17--14--17--14--12--14--12--10--|
-----------------------------------------------------------------------------------|


------------------------------------------------------------------------|
------------------------------------------------------------------------|
------------------------------------------------------------------------|
----------------------------------5*------------------------------------|
--12--10--7--10--7--5--7--5---------------------------------------------|
------------------------------------------------------------------------|


Tapping

------------------------------------------------------------------------|
------------------------------------------------------------------------|
--9--5--7--5--9--5--7--5--9--5--7--5---ETC.-----------------------------|
------------------------------------------------------------------------|
------------------------------------------------------------------------|
------------------------------------------------------------------------|


----------------------------------------------------------------------------|
----------------------------------------------------------------------------|
---9--7--5------------------------------------------------------------------|
--------------9--7--5-------------------------------------------------------|
------------------------9--7--5---------------------------------------------|
-----------------------------------9--7--5----------------------------------|


-------14--15--14--15--17--18-------------16--18--20--21----------------|
--17--------------------------------------------------------------------|
------------------------------------------------------------------------|
------------------------------------------------------------------------|
------------------------------------------------------------------------|
------------------------------------------------------------------------|


---------------------------17~~~~~~~~~~~--------------------------------|
------------------------------------------------------------------------|
--17~~~~~~~~~~~---------------------------------------------------------|
------------------------------------------------------------------------|
------------------------------------------------------------------------|
------------------------------------------------------------------------|


(I dried your tears of pain babe) x2

-------12--10-----------------------------------------------------------|
--10-----------12--12--13--12-10~~~~~-----------------------------------|
------------------------------------------------------------------------|
------------------------------------------------------------------------|
------------------------------------------------------------------------|
------------------------------------------------------------------------|


--13--12--13------------------------------------------------------------|
-----------------13--12--10---------------------------------------------|
------------------------------------------------------------------------|
------------------------------------------------------------------------|
------------------------------------------------------------------------|
------------------------------------------------------------------------|

----------------------------------------12--10---------------------------------|
--10--13--12--15----10--13---10-----------12--12--13--12--10-------------------|
-------------------------------------------------------------------------------|
-------------------------------------------------------------------------------|
-------------------------------------------------------------------------------|
-------------------------------------------------------------------------------|


----------------------------------13--12--13--12------------------------|
--10--13--12--15--10--13------------------------13--12--10--------------|
------------------------------------------------------------------------|
------------------------------------------------------------------------|
------------------------------------------------------------------------|
------------------------------------------------------------------------|
Composição de Billy Idol
Colaboração e revisão:
  • David Fortunato
1.706 exibições
    • ½ Tom
    • A
    • Bb
    • B
    • C
    • Db
    • D
    • Eb
    • E
    • F
    • F#
    • G
    • Ab
  • Adicionar à lista

    0 comentários

    Mostrar mais comentários
    00:00 / 00:00
    outros vídeos desta música
    repetir qualidade Automático
    Outros vídeos desta música
    00:00 / 00:00
    Automático

    Cifra Club Pro

    Aproveite o Cifra Club com benefícios exclusivos e sem anúncios
    Cifra Club Pro
    Aproveite o Cifra Club com benefícios exclusivos e sem anúncios
    OK