Cifra Club

Aprenda

The Legacy

Black Veil Brides

Tab de baixo: Principal
Afinação: C# G# C# F#

Intro:
F# |---------------------------------------------------------|
C# |---------------------------------------------------------|   (2x)
G# |---------------------------------------------------------|
C# |--2p0-2p0-2h5p2-00--5h8p7h8-2p0-2p0-2h5p2-2h5p2-88888888-|

F# |----------------------------------------------------------------|
C# |----------------------------------------------------------------|
G# |----------------------------------------------------------------|
C# | 2p0-2p0-2h5p2-00--5h8p7h8-2p0-2p0-2h5p2-2h5p2-000-000-000-12|0-|

F# |------------------------------------------------------------------------|
C# |------------------------------------------------------------------------|
G# |------------------------------------------------------------------------|
C# |2p0-2p0-2h5p2-00--5h8p7h8-2p0-2p0-2h5p2-2h5p2-88888888-101010101010-12|0|

Verso 1:
F# |-------------------------------------------------|
C# |-------------------------------------------------|   (3x)
G# |------------3h5p0----------5h7p0----------3h5p0--|
C# |--00000------------00000----------00000----------|

F# |------------------------------|
C# |------------------------------|
G# |------------------------------| 
C# |-999999-888888-777777-5555555-|

Verso 1:
F# |-------------------------------------------------|
C# |-------------------------------------------------|   (3x)
G# |------------3h5p0----------5h7p0----------3h5p0--|
C# |--00000------------00000----------00000----------|

F# |-------------------------------------------------------|
C# |-------------------------------------------------------|
G# |-------------------------------------------------------|
C# |-999999-888888-777777-5555555-888888888-10101010101010-|

Refrão:
F# |----------------------------------------------------|
C# |----------------------------------------------------|   (2x)
G# |----------------------------------------------------|
C# |-0000000-33333333333-555555555555-88888888-10101010-|

Verso 2:
F# |------------------------------------------------------------------------|
C# |------------------------------------------------------------------------|
G# |--------------------1p0-1p0-1p0-------2h3p2-0000-5|---------1p0-1p0-1p0-|
C# |-1p0-1p0------1p0-1p0-----------1p0-1p0------------1p0-1p0--------------|

Verso 1:
F# |-------------------------------------------------|
C# |-------------------------------------------------|   (3x)
G# |------------3h5p0----------5h7p0----------3h5p0--|
C# |--00000------------00000----------00000----------|

F# |------------------------------|
C# |------------------------------|
G# |------------------------------|
C# |-999999-888888-777777-5555555-|

Verso 1:
F# |-------------------------------------------------|
C# |-------------------------------------------------|   (3x)
G# |------------3h5p0----------5h7p0----------3h5p0--|
C# |--00000------------00000----------00000----------|

F# |-------------------------------------------------------|
C# |-------------------------------------------------------|
G# |-------------------------------------------------------|
C# |-999999-888888-777777-5555555-888888888-10101010101010-|

Refrão:
F# |----------------------------------------------------|
C# |----------------------------------------------------|   (4x)
G# |----------------------------------------------------|
C# |-0000000-33333333333-555555555555-88888888-10101010-|

Intro:
F# |-------------------------------------------------------------|
C# |-------------------------------------------------------------|
G# |-------------------------------------------------------------|
C# |-5h7p0-5h7p0-5h7p0-5h7p0-5h7p0-5h7p0-5h7p0-5h7p0-5h7p0-5h7p0-|

F# |------------------------------------------------------------------------|
C# |------------------------------------------------------------------------|
G# |------------------------------------------7h9p0-7h9p0-7h9p0-7h9p07h9p0--|
C# |-7h9p0-7h9p0-7h9p0-7h9p0-7h9p0------------------------------------------|

F# |--------------------------------------------------|
C# |--------------------------------------------------|   (4x)
G# |--------------------------------------------------|
C# |-00000000-0-000000----000000-0-000000-0-0-0-12|0--|

Intro:
F# |---------------------------------------------------------|
C# |---------------------------------------------------------|
G# |---------------------------------------------------------|   (2x)
C# |--2p0-2p0-2h5p2-00--5h8p7h8-2p0-2p0-2h5p2-2h5p2-88888888-|

F# |----------------------------------------------------------------|
C# |----------------------------------------------------------------|
G# |----------------------------------------------------------------|
C# | 2p0-2p0-2h5p2-00--5h8p7h8-2p0-2p0-2h5p2-2h5p2-000-000-000-12|0-|

F# |------------------------------------------------------------------------|
C# |------------------------------------------------------------------------|
G# |------------------------------------------------------------------------|
C# |2p0-2p0-2h5p2-00-5h8p7h8-2p0-2p0-2h5p2-2h5p2-8888888-77777-555555 333333|

F# |--------------------------|
C# |--------------------------|
G# |--------------------------|
C# |-0-----3-----5-----8---10-|

F# |------------------------------------------------------------------------|
C# |------------------------------------------------------------------------|
G# |------------------------------------------------------------------------|
C# |-0-0-0-0-0-0-0-0--3-3-3-3-3-3-3-3--5-5-5-5-5-5-5-5--8-8-8-8--10-10-10-10|

F# |----------------------------------------------|
C# |----------------------------------------------|
G# |----------------------------------------------|
C# |-0-00000-00000-0-00000-00000-5-55555-7-77777--|

F# |-----------------------------------------------|
C# |-----------------------------------------------|
G# |-----------------------------------------------|
C# |-0-00000-00000-0-00000-00000-5-55555-8-7-5-3---|

Refrão:
F# |----------------------------------------------------|
C# |----------------------------------------------------|   (4x)
G# |----------------------------------------------------| 
C# |-0000000-33333333333-555555555555-88888888-10101010-|

F# |------------------------------------------------------|
C# |------------------------------------------------------|   (2x)
G# |---------------2h3p2-0000-5|------------1p0-1p0-1p0---|
C# |-1p0-1p0------------------------1p0-1p0---------------|    
Composição de Andy Biersack
Colaboração e revisão:
  • Gustavo Simionato
4.931 exibições

0 comentários

Mostrar mais comentários
00:00 / 00:00
outros vídeos desta música
repetir qualidade Automático
Outros vídeos desta música
00:00 / 00:00
Automático

Cifra Club Pro

Aproveite o Cifra Club com benefícios exclusivos e sem anúncios
Cifra Club Pro
Aproveite o Cifra Club com benefícios exclusivos e sem anúncios
OK