Miss You Solo

Blackfield

tom: C
title: Miss you
Solo

3:22
e: ------------------------------------------|--------------------------|
B: ---------------------------13----13----13-|--13s15s13-13s15s13-------|
G: ----------10>12--10--12s14----12----------|--------------------------|
D: -12--12>14--------------------------15----|----------------------12--|
A: ------------------------------------------|--------------------------|
E: ------------------------------------------|--------------------------|

e: ------------------------------------------------------------------------|
B: ------------------------------------------------------------------------|
G: -------------------------------------------------------14-14>15>17------|
D: -12-12-12>10----9s12-12s14--------------10----10------------------------|
A: ---------------------------14--12s10-12---10------8---------------------|
E: ------------------------------------------------------------------------|

e: -------------------|
B: -------------------|
G: --17b-17b--14------|
D: -------------------|
A: -------------------|
E: -------------------|

key:
> = jump
s = slide
b = Bend

If you find any problems please email me 
*
thank you
Have Fun
--------------------------------------------------------------------
® All Rights reservd ® Tomasi
Página 1 / 1

Letras e título
Acordes e artista

resetar configurações
OK