Cifra Club

Aprenda

Sence Of Insanity

Blackfield

Cifra: Principal (violão e guitarra)
tom: B

VERSE 1
********
B                         E
Mother, have you seen the world today    Section 1
        B                      E        [----------]
They're shooting all over town          [-0--0-2-4-]                 
      B                                 [----------]
I'm a sinner                            [----------]                       
            E                           [----------]
I'm not the one you prayed for          [----------]                 
        B                      E
Doesn't matter, I'm still alive

----------------------------------------------
CHORUS
*******
G#m           E
I was walking on the clouds
       B                      F#
You've got to be brave if you want to have crowds
G#m             E
Dreams guide me to the mountain                       Section 2
      B                               F#             [------------]
I was standing like a priest with his ancient Bible  [-4-5-7--4-7-]          
      E             F#                               [------------]
I was preaching the sense of insanity                [------------]   
                                                     [------------]    
                                                     [------------]        

----------------------------------------------
Section 3
[-2-2-2---0-0-0-0-0-0-]
[-4-4-4---4-4-4-4-4-4-]
[-4-4-4---4-4-4-4-4-4-]
[-4-4-4---4-4-4-4-4-4-]
[---------------------]
[---------------------]X2

----------------------------------------------
VERSE 2
********                                         
B                       E
Brothers, let's get out to the streets       [-----------------------------]               
             B                     E         [-0-2-4---0-2-4---0-2-4---0-2-]
Sure there's something you want to say       [-----------------------------]           
           B                  E              [-----------------------------]
They won't hear you like they never did      [-----------------------------]
         B               E                   [-----------------------------]
All your heroes ran away

----------------------------------------------
CHORUS
*******
----------------------------------------------
Section 3                   Distorted
[-2-2-2---0-0-0-0-0-0-]     [-2-2-2-]
[-4-4-4---4-4-4-4-4-4-]     [-4-4-4-]
[-4-4-4---4-4-4-4-4-4-]     [-4-4-4-]
[-4-4-4---4-4-4-4-4-4-]     [-4-4 4-]
[---------------------]     [-2-2-2-]
[---------------------]X2   [-------]

----------------------------------------------

Ohhhhhh

SMALL SOLO - G#m E B F#
***********
[------------------------|----------------------]
[--12-11-9-9-------------|----------------------]
[------------11-8-9-6-8--|----------------------]
[------------------------|----------------------]
[------------------------|----------------------]
[------------------------|----------------------]
|                                               |
|                                               |
[------------------------|----------------------]
[-0-2-4-0-4--0-2-0-4-0-4-|-0-2-4-0-2--0-2-4-0-2-]
[------------------------|----------------------]
[------------------------|----------------------]
[------------------------|----------------------]
[------------------------|----------------------]X2

    F#
The Sence Of Insanity

----------------------------------------------
HALF CHORUS
************
G#m             E
Dreams guide me to the mountain
      B                               F#
I was standing like a priest with his ancient Bible
      E             F#
I was preaching the sense of insanity

----------------------------------------------
C#m
Oh Oh Oh  Oh Oh Oh
E
Oh Oh Oh Ohhhhhh
B
Oh Oh Oh  Oh Oh Oh
B
Oh Oh Oh Ohhhhhh         X4

02:53
[----s-----------------]
[-0-2\4-4-4-2--2-2-2-0-]
[----------------------]
[----------------------]
[----------------------]
[----------------------]X4

                              finish
[----s---------------2-]  [--s--------]
[-0-2\4-4-4-2--2-2-2---]  [-2\4-4-4-2-]
[----------------------]  [-----------]
[----------------------]  [-----------]
[----------------------]  [-----------]
[----------------------]X6[-----------]
Colaboração e revisão:
  • luana oliveira
4 exibições
    • ½ Tom
    • A
    • Bb
    • B
    • C
    • Db
    • D
    • Eb
    • E
    • F
    • F#
    • G
    • Ab
  • Adicionar à lista

    0 comentários

    Ver todos os comentários

    Conseguiu tocar?

    0 Tocaram 0 Ainda não

    Grave um vídeo tocando Sence Of Insanity e nos envie!

    00:00 / 00:00
    outros vídeos desta música
    repetir qualidade Automático
    Outros vídeos desta música
    00:00 / 00:00
    Automático

    Cifra Club Pro

    Aproveite o Cifra Club com benefícios exclusivos e sem anúncios
    Cifra Club Pro
    Aproveite o Cifra Club com benefícios exclusivos e sem anúncios
    OK