Cifra Club

Aprenda

Where Is My Love

Blackfield

Cifra: Principal (violão e guitarra)
tom: G
Am                          Em7
Endless fields of emptiness in my dark and wounded heart
              Am        Em7
Where is my love?
Am                                        Em7
The freezing moment when you turned your head and waved goodbye
              Am        Em7
Where is my love?


D                                  A
Even all the deepest storms can't take my pain away
              G            D
Where is my love?
Bm                            A
Noisy happy people crossing streets from side to side
              G            D
Where is my love?


Am                                Em7
I gave you everything I could but you want the stars
              Am         Em7
Where is my love?
Am                                Em7
Endless fields of emptiness in my dark and wounded heart
              Am         Em7
Where is my love?


D                                  A
Even all the deepest storms can't take my pain away
              G          D
Where is my love?
Bm                            A
Noisy happy people crossing streets from side to side
              G          D
Where is my love?

So where is my love

(over the solo) D A G  D  Bm A G  D
ELECTRIC GUITAR
****************
E|----------------|----------------|----------|
B|---h-----h------|---h-----h------|---h------|
G|-11-12-11-12-14-|-11-12-11-12-14-|-11-12-14-|
D|----------------|----------------|----------|
A|----------------|----------------|----------|
E|----------------|----------------|----------|X4


Bm                            A
Noisy happy people crossing streets from side to side
              G          D
Where is my love?
E|----------------|----------------|----------|
B|---h-----h---15-|---h-----h------|---h------|
G|-11-12-11-12----|-11-12-11-12-14-|-11-12-14-|
D|----------------|----------------|----------|
A|----------------|----------------|----------|
E|----------------|----------------|----------|X4
                                                      The last of the 4 finish on this
     h     h          h     h          h                  h     h     p
E|-14-15-14-15-17-|-14-15-14-15-17-|-14-15-17-|       |-14-15-14-15-17-14-------------------|
B|----------------|----------------|----------|       |-------------------15----17-15-------|
G|----------------|----------------|----------|       |----------------------14-------14-12-|
D|----------------|----------------|----------|       |-------------------------------------|
A|----------------|----------------|----------|       |-------------------------------------|
E|----------------|----------------|----------|X3 1/2 |-------------------------------------|

E|----------------|----------------|----------|  |----------------|----------------|----------|
B|---h-----h---15-|---h-----h------|---h------|  |---h-----h---15-|---h-----h------|---h------|
G|-11-12-11-12----|-11-12-11-12-14-|-11-12-14-|  |-11-12-11-12-14-|-11-12-11-12-14-|-11-12-14-|
D|----------------|----------------|----------|  |----------------|----------------|----------|
A|----------------|----------------|----------|  |----------------|----------------|----------|
E|----------------|----------------|----------|X2|----------------|----------------|----------|X2
Am                                Em7
Endless fields of emptiness in my dark and wounded heart
              Am         Em7
Where is my love?
Composição de Aviv Geffen
Colaboração e revisão:
  • luana oliveira
57 exibições
    • ½ Tom
    • A
    • Bb
    • B
    • C
    • Db
    • D
    • Eb
    • E
    • F
    • F#
    • G
    • Ab
  • Adicionar à lista

    0 comentários

    Ver todos os comentários

    Conseguiu tocar?

    0 Tocaram 0 Ainda não

    Grave um vídeo tocando Where Is My Love e nos envie!

    00:00 / 00:00
    outros vídeos desta música
    repetir qualidade Automático
    Outros vídeos desta música
    00:00 / 00:00
    Automático

    Cifra Club Pro

    Aproveite o Cifra Club com benefícios exclusivos e sem anúncios
    Cifra Club Pro
    Aproveite o Cifra Club com benefícios exclusivos e sem anúncios
    OK