Cifra Club

Aprenda

A Past and Future Secret

Blind Guardian

Cifra: Principal (violão e guitarra)
tom: G
Intro (2 times)

gtr.1

Eb---3-----------3--5--5------3------------5--3--------|
Bb---3-----------3--6--6------3------------6--3--------|
F#*--3-----------3--5--7------3------------7--3-------*|  
Db*--5-----------5--3--7------5------------7--5-------*|
Ab---5-----------5-----5------5------------5--5--------|
Eb---3-----------3-----5------3------------5--3--------|

gtr.2

Eb-----10-11-10-8-10----8~-----------------------------|
Bb-------------------11---------10-11-10-8------8~-----|
F#*----------------------------------------10-7-------*|
Db*---------------------------------------------------*|
Ab-----------------------------------------------------|
Eb-----------------------------------------------------|

gtr.1
Eb-3-------3-----5-3-------3--------3----|
Bb-3-3---3---3-----3-3---3---3-----------|
Gb-3---3-------3---3---3-------3---------|
Db-5---------------5---------------------|
Ab-5---------------5---------------------|
Eb-3---------------3---------------------|

gtr.2
Eb-3-------3-----5-3-------10-8-6-5-3----|
Bb---3---3---3-------3---3---------------|
Gb-----3-------3-------3-----------------|
Db---------------------------------------|
Ab---------------------------------------|
Eb---------------------------------------|

riff 1
gtr.1
Eb---3---------5---5-------5-----3-------3-----5-3-------3-------3---|
Bb---3---------6---6-------6-----3-3---3---3-----3-3---3---3---------|
Gb---3---------5---7-------5-----3---3-------3---3---3-------3-------|  
Db---5---------3---7-------3-----5---------------5-------------------|
Ab---5-------------5-------------5---------------5-------------------|
Eb---3-------------5-------------3---------------3-------------------|

 Oh I haven't been here for a while
gtr.2
Eb---3-------3--5--6--5h6p5-3----3-------3-----5-3-------3--------3--|
Bb----------------------------6----3---3---3-------3---3---3---------|
Gb-----------------------------------3-------3-------3-------3-------|
Db-------------------------------------------------------------------|
Ab-------------------------------------------------------------------|
Eb-------------------------------------------------------------------|

gtr.1
Eb---3---------5---5-------5------------3-------3-------5-------5-------------|
Bb---3---------6---6-------6------------4-4---4-4-4---4-6-6---6---6---6-------|
Gb---3---------5---7-------5------------3---3---5---5---5---5-------5---------|  
Db---5---------3---7-------3------------5-------5-------3---------------------|
Ab---5-------------5--------------------5-------5-------3---------------------|
Eb---3-------------5--------------------3-------------------------------------|

In blidness and decay the circle's been closed       now
gtr.2
Eb---3-------3--5--6--5h6p5-3-----------3-----3-3---3---5-----5-5h6p5---3h53--|
Bb----------------------------6-----------4-------4--4----6-----------6------6|
Gb------------------------------------------3---------------5-----------------|
Db----------------------------------------------------------------------------|
Ab----------------------------------------------------------------------------|
Eb----------------------------------------------------------------------------|

gtr.1
Eb-3-------3-------5-------5-------------3-------3-------5----------------3------|
Bb-4-4---4-4-4---4-6-6---6---6---6-------4-4---4-4-4---4-6-6---6----------3------|
Gb-3---3---5---5---5---5-------5---------3---3---5---5---5---5------------3------|
Db-5-------5-------3---------------------5-------5-------3----------------5------|
Ab-5-------5-------3---------------------6-------3------------------------5------|
Eb-3-------------------------------------3--------------------------------3------|
  My song of the   end                  My song of the end  I've seen it all
gtr.2
Eb-3-----3-3---3---5-----5-5h6p5---------3-----3--3---3----5-----5-5h6p5------3--|
Bb---4-------4--4----6-----------6---6-----4--------4--4-----6----------6---6----|
Gb-----3---------------5-----------5---------3-----------------5----------5------|
Db-------------------------------------------------------------------------------|
Ab-------------------------------------------------------------------------------|
Eb-------------------------------------------------------------------------------|

Riff2( 2times)
gtr.1

Eb---3-----------3--5--5------3------------5--3--------|
Bb---3-----------3--6--6------3------------6--3--------|
F#*--3-----------3--5--7------3------------7--3-------*|  
Db*--5-----------5--3--7------5------------7--5-------*|
Ab---5-----------5-----5------5------------5--5--------|
Eb---3-----------3-----5------3------------5--3--------|

gtr.2

Eb-----10-11-10-8-10----8~-----------------------------|
Bb-------------------11---------10-11-10-8------8~-----|
F#*----------------------------------------10-7-------*|
Db*---------------------------------------------------*|
Ab-----------------------------------------------------|
Eb-----------------------------------------------------|


words goes with riff2

Listen crowd I'll tell you everything
Though I have to say I don't know much
Talking about the past and future secret
Most called him Once and Future King 
Far back in the past I saw his ending
Long before it started I knew his name
He's the one who took the sword out of the stone

gtr.1
Eb---3--------5----------3-------3-------5-------5-------------|
Bb---3--------6----------4-4---4-4-4---4-6-6---6---6---6-------|
Gb---3--------7----------3---3---5---5---5---5-------5---------|  
Db---5--------7----------5-------5-------3---------------------|
Ab---5--------5----------5-------5-------3---------------------|
Eb---3--------5----------3-------------------------------------|

  It's how an ancient tale began . I hear it in the cold winds

gtr.2
Eb---3-------3--5--------3-----3-3---3---5-----5-5h6p5---3h53--|
Bb-------------------------4-------4--4----6-----------6------6|
Gb---------------------------3---------------5-----------------|
Db-------------------------------------------------------------|
Ab-------------------------------------------------------------|
Eb-------------------------------------------------------------|

gtr.1
Eb-3-------3-------5-------5-----------3-------3-------5-------5---------|
Bb-4-4---4-4-4---4-6-6---6---6---6-----4-4---4-4-4---4-6-6---6---6---6---|
Gb-3---3---5---5---5---5-------5-------3---3---5---5---5---5-------5-----|
Db-5-------5-------3-------------------5-------5-------3-----------------|
Ab-5-------5-------3-------------------5-------5-------3-----------------|
Eb-3-----------------------------------3---------------------------------|

   My song of the end               My song of the end

gtr.2
Eb-3-----3-3---3---5-----5-5h6p5-------3-----3-3---3---5-----5-5h6p5-------|
Bb---4-------4--4----6-----------6---6---4-------4--4----6-----------6---6-|
Gb-----3---------------5-----------5-------3---------------5-----------5---|
Db-------------------------------------------------------------------------|
Ab-------------------------------------------------------------------------|
Eb-------------------------------------------------------------------------|

gtr.1
Eb-3-------3-------5-------5-------------3-------3-------5----------------3------|
Bb-4-4---4-4-4---4-6-6---6---6---6-------4-4---4-4-4---4-6-6---6----------3------|
Gb-3---3---5---5---5---5-------5---------3---3---5---5---5---5------------3------|
Db-5-------5-------3---------------------5-------5-------3----------------5------|
Ab-5-------5-------3---------------------6-------3------------------------5------|
Eb-3-------------------------------------3--------------------------------3------|
  My song of the end.                    My song of the end.
                I had seen it in my dreams         I can't stop the darkning clouds
gtr.2
Eb-3-----3-3---3---5-----5-5h6p5---------3-----3--3---3----5-----5-5h6p5------3--|
Bb---4-------4--4----6-----------6---6-----4--------4--4-----6----------6---6----|
Gb-----3---------------5-----------5---------3-----------------5----------5------|
Db-------------------------------------------------------------------------------|
Ab-------------------------------------------------------------------------------|
Eb-------------------------------------------------------------------------------|

Gtr.2 (lead part is playing with Riff2(2x))

Eb-10-11-10-8-10-8-10----8-10-11-|-10-11-10-8-10-8-10----8--------
Bb--------------------11---------|--------------------11----------
Gb-------------------------------|--------------------------------
Db-------------------------------|--------------------------------
Ab-------------------------------|--------------------------------
Eb-------------------------------|--------------------------------
                    
Eb-10-11-10-8-10-8-10----8-10-11-|-10-11-10-8---------------------
Bb--------------------11---------|------------11-8---------8~-----
Gb-------------------------------|-----------------10---7---------
Db-------------------------------|--------------------------------
Ab-------------------------------|--------------------------------
Eb-------------------------------|--------------------------------

gtr.1
Eb-3-------3-----5-3-------3--------3----|
Bb-3-3---3---3-----3-3---3---3---3-------|
Gb-3---3-------3---3---3-------3---------|
Db-5---------------5---------------------|
Ab-5---------------5---------------------|
Eb-3---------------3---------------------|

gtr.2
Eb-3-------3----------------15-10-8-6-5-3-|
Bb---3---3---3--18-15h18-15---------------|
Gb-----3-------3--------------------------|
Db----------------------------------------|
Ab----------------------------------------|
Eb----------------------------------------|

gtr.1
Eb---3-------3-5---5-------5-----3-------3-----5-3-------3-------3---|
Bb---3-3---3---6-6-6-6---6-6-6---3-3---3---3-----3-3---3---3---------|
Gb---3---3-----5---7---7---5---5-3---3-------3---3---3-------3-------|  
Db---5---------3---7-------3-----5---------------5-------------------|
Ab---5-------------5-------------5---------------5-------------------|
Eb---3-------------5-------------3---------------3-------------------|

    I feel cold when I cry out for the bark
                                 Take him back to Avalon
gtr.2
Eb---3-------3--5--6--5h6p5-3----3-------3-10-11-10-8-------------------------------------------|
Bb----------------------------6----3---3--------------11-10-8-10-10-11-10-8--------------------8|
Gb-----------------------------------3--------------------------------------10-12-10-8-10-8-7-8-|
Db----------------------------------------------------------------------------------------------|
Ab----------------------------------------------------------------------------------------------|
Eb----------------------------------------------------------------------------------------------|

gtr.1
Eb---3-------3-5---5-------5-----3-------3-----5-3-------3-------3---|
Bb---3-3---3---6-6-6-6---6-6-6---3-3---3---3-----3-3---3---3---------|
Gb---3---3-----5---7---7---5---5-3---3-------3---3---3-------3-------|  
Db---5---------3---7-------3-----5---------------5-------------------|
Ab---5-------------5-------------5---------------5-------------------|
Eb---3-------------5-------------3---------------3-------------------|

    Dwell on for a new age so long sleep well my friend.
                                 Take him back to Avalon
gtr.2
Eb---3-------3--5--6--5h6p5-3----3-------3-10-11-10-8-------------------------------------------|
Bb----------------------------6----3---3--------------11-10-8-10-10-11-10-8--------------------8|
Gb-----------------------------------3--------------------------------------10-12-10-8-10-8-7-8-|
Db----------------------------------------------------------------------------------------------|
Ab----------------------------------------------------------------------------------------------|
Eb----------------------------------------------------------------------------------------------|

gtr.1
Eb---3------3--5----5--5------3-------3-------5-------5-------------|
Bb---3------3--6----6--6------4-4---4-4-4---4-6-6---6---6---6-------|
Gb---3------3--5----5--7------3---3---5---5---5---5-------5---------|  
Db---5------5--3----3--7------5-------5-------3---------------------|
Ab---5------5--3----3--5------5-------5-------3---------------------|
Eb---3------3----------5------3-------------------------------------|

I will wait and guard the future king's crown

gtr.2
Eb---3------3--5----5-5--3----3-----3-3---3---5-----5-5h6p5---------|
Bb----------------------6-------4-------4--4----6----------6---6----|
Gb--------------------------------3---------------5----------5------|
Db------------------------------------------------------------------|
Ab------------------------------------------------------------------|
Eb------------------------------------------------------------------|

gtr.1
Eb-3-------3-------5-------5-----------3-------3-------5-------5---------|
Bb-4-4---4-4-4---4-6-6---6---6---6-----4-4---4-4-4---4-6-6---6---6---6---|
Gb-3---3---5---5---5---5-------5-------3---3---5---5---5---5-------5-----|
Db-5-------5-------3-------------------5-------5-------3-----------------|
Ab-5-------5-------3-------------------5-------5-------3-----------------|
Eb-3-----------------------------------3---------------------------------|

   My song of the end               My song of the end

gtr.2
Eb-3-----3-3---3---5-----5-5h6p5-------3-----3-3---3---5-----5-5h6p5-------|
Bb---4-------4--4----6-----------6---6---4-------4--4----6-----------6---6-|
Gb-----3---------------5-----------5-------3---------------5-----------5---|
Db-------------------------------------------------------------------------|
Ab-------------------------------------------------------------------------|
Eb-------------------------------------------------------------------------|

gtr.1
Eb-3-------3-------5-------5-----------3-------3-------5-------5---------|
Bb-4-4---4-4-4---4-6-6---6---6---6-----4-4---4-4-4---4-6-6---6---6---6---|
Gb-3---3---5---5---5---5-------5-------3---3---5---5---5---5-------5-----|
Db-5-------5-------3-------------------5-------5-------3-----------------|
Ab-5-------5-------3-------------------5-------5-------3-----------------|
Eb-3-----------------------------------3---------------------------------|

   My song of the end               My song of the end
                                             It was nice but now its gone
gtr.2
Eb-3-----3-3---3---5-----5-5h6p5-------3-----3-3---3---5-----5-5h6p5-------|
Bb---4-------4--4----6-----------6---6---4-------4--4----6-----------6---6-|
Gb-----3---------------5-----------5-------3---------------5-----------5---|
Db-------------------------------------------------------------------------|
Ab-------------------------------------------------------------------------|
Eb-------------------------------------------------------------------------|

gtr.1
Eb-3-------3-------5-------5-----------3-------3-------5-----------------|
Bb-4-4---4-4-4---4-6-6---6---6---6-----4-4---4-4-4---4-6-6---6-----------|
Gb-3---3---5---5---5---5-------5-------3---3---5---5---5---5-------------|
Db-5-------5-------3-------------------5-------5-------3-----------------|
Ab-5-------5-------3-------------------5-------5-------3-----------------|
Eb-3-----------------------------------3---------------------------------|

   My song of the end               My song of the end
            It was fixed the whole time             I saw it all
gtr.2
Eb-3-----3-3---3---5-----5-5h6p5-------3-----3-3---3---5-----5-5h6-5-3---|
Bb---4-------4--4----6-----------6---6---4-------4--4----6---------------|
Gb-----3---------------5-----------5-------3---------------5-------------|
Db-----------------------------------------------------------------------|
Ab-----------------------------------------------------------------------|
Eb-----------------------------------------------------------------------|

Gtr.1
Eb---3--------------3--5--5--------3------------5--3--------|
Bb---3--------------3--6--6--------3------------6--3--------|
Gb---3--------------3--5--7--------3------------7--3--------|  
Db---5--------------5--3--7--------5------------7--5--------|
Ab---5--------------5-----5--------5------------5--5--------|
Eb---3--------------3-----5--------3------------5--3--------|

Gtr.2 

Eb-10-11-10-8-10-8-10----8-10-11-|-10-11-10-8-10-8-10----8--------
Bb--------------------11---------|--------------------11----------
Gb-------------------------------|--------------------------------
Db-------------------------------|--------------------------------
Ab-------------------------------|--------------------------------
Eb-------------------------------|--------------------------------

Gtr.1
Eb---3-----------------3--5--5----------3------------5------------3-|
Bb---3-----------------3--6--6----------3------------6-----------3--|
Gb---3-----------------3--5--7----------3------------7----------3---|  
Db---5-----------------5--3--7----------5------------7---------5----|
Ab---5-----------------5-----5----------5------------5--------5-----|
Eb---3-----------------3-----5----------3------------5-------3------|
  
Gtr.2                  
Eb-10-11-10-8-10-8-10----8-10-11-|---------------------------------
Bb--------------------11---------|-11-13-11-10-8--------------8~---
Gb-------------------------------|---------------10-9----5~--------
Db-------------------------------|---------------------------------
Ab-------------------------------|---------------------------------
Eb-------------------------------|---------------------------------
Composição de André Olbrich / Hansi Kürsch
Colaboração e revisão:
  • Rodrigo Murai
24.859 exibições
  • Simplificar cifra
    • ½ Tom
    • A
    • Bb
    • B
    • C
    • Db
    • D
    • Eb
    • E
    • F
    • F#
    • G
    • Ab
  • Adicionar à lista

    0 comentários

    Ver todos os comentários

    Conseguiu tocar?

    0 Tocaram 0 Ainda não

    Grave um vídeo tocando A Past and Future Secret e nos envie!

    00:00 / 00:00
    Outros vídeos desta música
    Repetir Qualidade Automático
    Outros vídeos desta música
    00:00 / 00:00
    Automático

    Cifra Club Pro

    Aproveite o Cifra Club com benefícios exclusivos e sem anúncios
    Cifra Club Pro
    Aproveite o Cifra Club com benefícios exclusivos e sem anúncios
    OK