Cifra Club

Ashes To Ashes

Blind Guardian

Tab de baixo: Principal
F#||------|------|-----2-----2-----2-----2-2-|-----1-----1-----1-----1-1-|
C#||------|------|--0-----0-----0-----0------|--0-----0-----0-----0------|
G#||------|------|---------------------------|---------------------------|
D#||------|------|---------------------------|---------------------------|
                                                           
--------------------|------------------|-------------------|
--0-----------------|------------------|-------------------|
--------------------|------------------|-------------------|
---------------4----|------------------|--0----------------|
                                                              
--------------------|-------------------|--------------------|
--------------------|-------------------|--------------------|
--------------------|-------------------|--------------------|
--3--------1--------|--0----------------|--3--------1--------|
                                                              
---------------------|------------------|---------------------|
---------------------|------------------|---------------------|
---------------------|------------------|---------------------|
--0----------0----0--|------------------|--0----------0----0--|
                                                                               
------------------|--------------------|-------------------|-------------------|
------------------|--------------------|-------------------|-------------------|
------------------|-----------2--------|--1----------------|-------------------|
------------------|--0-----------------|-------------------|--3----------------|
                                                                            
-------------------|---------------------------|---------------------------|
-------------------|--2-----2-----2-----2------|--1-----1-----1-----1------|
--1----------------|-----2-----2-----2-----2-2-|-----1-----1-----1-----1-1-|
-------------------|---------------------------|---------------------------|
                                                        
---------------------------|---------------------------|
--2-----2-----2-----2------|--1-----1-----1-----1------|
-----2-----2-----2-----2-2-|-----1-----1-----1-----1-1-|
---------------------------|---------------------------|
                                                        
---------------------------|---------------------------|
--2-----2-----2-----2------|--1-----1-----1-----1------|
-----2-----2-----2-----2-2-|-----1-----1-----1-----1-1-|
---------------------------|---------------------------|
                                                        
---------------------------|---------------------------|
--2-----2-----2-----2------|--1-----1-----1-----1------|
-----2-----2-----2-----2-2-|-----1-----1-----1-----1-1-|
---------------------------|---------------------------|
                                                                 
--------------------------------|--------------------------------|
--------------------------------|--------------------------------|
--------------------------------|--0--0-0-0-0-0-0-0--0-0-0-0-0-0-|
--3--3-3-3-3-3-3-3--3-3-3-3-3-3-|--------------------------------|
                                                                        
-------------------|------------------|---------------------------------|
-------------------|------------------|---------------------------------|
-------------------|------------------|---------------------------------|
--3----------------|------------------|--0--0-0-0-0-0-0-0-0-0-0-0-0-0-0-|
                                                                    
---------------------------------|---------------------------------|
---------------------------------|---------------------------------|
---------------------------------|--3--3-3-3-3-3-3-3-3-3-3-3-3-3-3-|
--1--1-1-1-1-1-1-1-1-1-1-1-1-1-1-|---------------------------------|
                                                                    
---------------------------------|---------------------------------|
---------------------------------|---------------------------------|
--2--2-2-2-2-2-2-2-2-2-2-2-2-2-2-|---------------------------------|
---------------------------------|--0--0-0-0-0-0-0-0-0-0-0-0-0-0-0-|
                                                                    
---------------------------------|---------------------------------|
---------------------------------|---------------------------------|
---------------------------------|--3--3-3-3-3-3-3-3-3-3-3-3-3-3-3-|
--1--1-1-1-1-1-1-1-1-1-1-1-1-1-1-|---------------------------------|
                                                        
---------------------------------|---------------------|
---------------------------------|---------------------|
--2--2-2-2-2-2-2-2-2-2-2-2-2-2-2-|--3------2--1--------|
---------------------------------|---------------------|
                                                                           
---------------------------------|---------------------|-------------------|
---------------------------------|---------------------|-------------------|
--1--1-1-1-1-1-1-1-1-1-1-1-1-1-1-|--3------2--1--------|-------------------|
---------------------------------|---------------------|--0----------------|
                                                                              
---------------------|---------------------------------|---------------------|
---------------------|---------------------------------|---------------------|
--3------2--1--------|--1--1-1-1-1-1-1-1-1-1-1-1-1-1-1-|--3------2--1--------|
---------------------|---------------------------------|---------------------|
                                                                              
-------------------|-------------------|------------------|-------------------|
-------------------|-------------------|------------------|-------------------|
-------------------|-------------------|------------------|--1----------------|
--0----------------|--0----------------|------------------|-------------------|
                                                                            
------------------|-------------------|------------------|-------------------|
------------------|-------------------|------------------|-------------------|
------------------|-------------------|------------------|--1----------------|
------------------|--0----------------|------------------|-------------------|
                                                                                
------------------|-------------------|--------------------|-------------------|
------------------|-------------------|--------------------|-------------------|
------------------|--0----------------|--3--------2--------|--0----------------|
------------------|-------------------|--------------------|-------------------|
                                                      
--------------------|---------------------------------|
--------------------|---------------------------------|
--3--------2--------|--0--0-0-0-0-0-0-0-0-0-0-0-0-0-0-|
--------------------|---------------------------------|
                                                                    
---------------------------------|---------------------------------|
---------------------------------|---------------------------------|
--3--3-3-3-3-3-3-3-3-3-3-3-3-3-3-|---------------------------------|
---------------------------------|--3--3-3-3-3-3-3-3-3-3-3-3-3-3-3-|
                                                        
---------------------|---------------------------------|
--2--------1----0----|---------------------------------|
---------------------|--0--0-0-0-0-0-0-0-0-0-0-0-0-0-0-|
---------------------|---------------------------------|
                                                                    
---------------------------------|---------------------------------|
---------------------------------|---------------------------------|
--3--3-3-3-3-3-3-3-3-3-3-3-3-3-3-|---------------------------------|
---------------------------------|--3--3-3-3-3-3-3-3-3-3-3-3-3-3-3-|
                                                                           
----------------0----|--------------------------|--------------------------|
--2--------3---------|--------------------------|--------------------------|
---------------------|--0--0--0--0--0--0--0--0--|--3--3--3--3--3--3--3--3--|
---------------------|--------------------------|--------------------------|
                                                      
--------------------------|--------------------------|
--------------------------|--------------------------|
--------------------------|--------------------------|
--0--0--0--0--0--0--0--0--|--3--3--3--3--3--3--3--3--|
                                                      
--------------------------|--------------------------|
--------------------------|--------------------------|
--0--0--0--0--0--0--0--0--|--3--3--3--3--3--3--3--3--|
--------------------------|--------------------------|
                                                      
--------------------------|--------------------------|
--------------------------|--------------------------|
--------------------------|--------------------------|
--0--0--0--0--0--0--0--0--|--3--3--3--3--3--3--3--3--|
                                                                    
---------------------------------|---------------------------------|
---------------------------------|---------------------------------|
--0--0-0-0-0-0-0-0-0-0-0-0-0-0-0-|--3--3-3-3-3-3-3-3-3-3-3-3-3-3-3-|
---------------------------------|---------------------------------|
                                                                    
---------------------------------|---------------------------------|
---------------------------------|---------------------------------|
---------------------------------|---------------------------------|
--0--0-0-0-0-0-0-0-0-0-0-0-0-0-0-|--3--3-3-3-3-3-3-3-3-3-3-3-3-3-3-|
                                                                    
---------------------------------|---------------------------------|
---------------------------------|---------------------------------|
--0--0-0-0-0-0-0-0-0-0-0-0-0-0-0-|--3--3-3-3-3-3-3-3-3-3-3-3-3-3-3-|
---------------------------------|---------------------------------|
                                                                         
-------------------|------------------|---------------------------------|
-------------------|------------------|---------------------------------|
-------------------|------------------|--0--0-0-0-0-0-0-0-0-0-0-0-0-0-0-|
--0----------------|------------------|---------------------------------|
                                                                   
---------------------------------|---------------------------------|
---------------------------------|---------------------------------|
--3--3-3-3-3-3-3-3-3-3-3-3-3-3-3-|---------------------------------|
---------------------------------|--0--0-0-0-0-0-0-0-0-0-0-0-0-0-0-|
                                                                    
---------------------------------|---------------------------------|
---------------------------------|---------------------------------|
---------------------------------|--0--0-0-0-0-0-0-0-0-0-0-0-0-0-0-|
--3--3-3-3-3-3-3-3-3-3-3-3-3-3-3-|---------------------------------|
                                                                          
---------------------------------|-------------------|-------------------|
---------------------------------|-------------------|-------------------|
--3--3-3-3-3-3-3-3-3-3-3-3-3-3-3-|-------------------|-------------------|
---------------------------------|--0----------------|--3----------------|
                                                                              
-------------------|------------------|-------------------|------------------|
-------------------|------------------|-------------------|------------------|
-------------------|------------------|-------------------|------------------|
--0----------------|------------------|--0----------------|------------------|
                                                                   
---------------------------------|---------------------------------|
---------------------------------|---------------------------------|
---------------------------------|---------------------------------|
--0--0-0-0-0-0-0-0-0-0-0-0-0-0-0-|--1--1-1-1-1-1-1-1-1-1-1-1-1-1-1-|
                                                                    
---------------------------------|---------------------------------|
--0--0-0-0-0-0-0-0-0-0-0-0-0-0-0-|--2--2-2-2-2-2-2-2-2-2-2-2-2-2-2-|
---------------------------------|---------------------------------|
---------------------------------|---------------------------------|
                                                               
----------------------|---------------------|--------------------|
--3----2----0----2----|--3------------0--0--|--3----0------------|
----------------------|---------------------|--------------------|
----------------------|---------------------|--------------------|
                                                                   
---------------------------------|---------------------------------|
--2--2-2-2-2-2-2-2-2-2-2-2-2-2-2-|---------------------------------|
---------------------------------|--3--3-3-3-3-3-3-3-3-3-3-3-3-3-3-|
---------------------------------|---------------------------------|
                                                                   
---------------------------------|---------------------------------|
---------------------------------|---------------------------------|
--0--0-0-0-0-0-0-0-0-0-0-0-0-0-0-|--2--2-2-2-2-2-2-2-2-2-2-2-2-2-2-|
---------------------------------|---------------------------------|
                                                                   
---------------------------------|---------------------------------|
---------------------------------|---------------------------------|
--3--3-3-3-3-3-3-3-3-3-3-3-3-3-3-|--0--0-0-0-0-0-0-0-0-0-0-0-0-0-0-|
---------------------------------|---------------------------------|
                                                                        
-------------------|------------------|---------------------------------|
-------------------|------------------|--2--2-2-2-2-2-2-2-2-2-2-2-2-2-2-|
--2----------------|------------------|---------------------------------|
-------------------|------------------|---------------------------------|
                                                                    
---------------------------------|---------------------------------|
---------------------------------|---------------------------------|
--3--3-3-3-3-3-3-3-3-3-3-3-3-3-3-|--0--0-0-0-0-0-0-0-0-0-0-0-0-0-0-|
---------------------------------|---------------------------------|
                                                                    
---------------------------------|---------------------------------|
---------------------------------|---------------------------------|
--2--2-2-2-2-2-2-2-2-2-2-2-2-2-2-|--3--3-3-3-3-3-3-3-3-3-3-3-3-3-3-|
---------------------------------|---------------------------------|
                                                                        
---------------------------------|-------------------|------------------|
---------------------------------|-------------------|------------------|
--0--0-0-0-0-0-0-0-0-0-0-0-0-0-0-|--2----------------|------------------|
---------------------------------|-------------------|------------------|
                                                             
--------------------|-------------------|--------------------|
--------------------|-------------------|--------------------|
-----------0--------|-------------------|--0--------2--------|
--0-----------------|--3----------------|--------------------|
                                                               
--------------------|--------------------|--------------------|
--------------------|--------------------|--------------------|
--3--------0--------|--------------------|--0--------2--------|
--------------------|--0--------3--------|--------------------|
                                                                   
---------------------|-------------------|-------------------------|
---------------0--0--|--0----------------|-------------------------|
--0------------------|-------------------|-------------------------|
---------------------|-------------------|--0--0--0--0--0--0--0----|
                                                                             
-------------------------|-------------------------|-------------------------|
-------------------------|-------------------------|--0--0--0--0--0--0--0----|
-------------------------|--2--2--2--2--2--2--2----|-------------------------|
--3--3--3--3--3--3--3----|-------------------------|-------------------------|
                                                                             
-------------------------|-------------------------|-------------------------|
-------------------------|-------------------------|-------------------------|
-------------------------|-------------------------|--2--2--2--2--2--2--2----|
--0--0--0--0--0--0--0----|--3--3--3--3--3--3--3----|-------------------------|
                                                      
-------------------|---------------------------------|
--0----------------|---------------------------------|
-------------------|--0--0-0-0-0-0-0-0-0-0-0-0-0-0-0-|
-------------------|---------------------------------|
                                                                    
---------------------------------|---------------------------------|
---------------------------------|---------------------------------|
--3--3-3-3-3-3-3-3-3-3-3-3-3-3-3-|---------------------------------|
---------------------------------|--3--3-3-3-3-3-3-3-3-3-3-3-3-3-3-|
                                                        
---------------------|---------------------------------|
--2--------1----0----|---------------------------------|
---------------------|--0--0-0-0-0-0-0-0-0-0-0-0-0-0-0-|
---------------------|---------------------------------|
                                                                    
---------------------------------|---------------------------------|
---------------------------------|---------------------------------|
--3--3-3-3-3-3-3-3-3-3-3-3-3-3-3-|---------------------------------|
---------------------------------|--3--3-3-3-3-3-3-3-3-3-3-3-3-3-3-|
                                                                           
----------------0----|--------------------------|--------------------------|
--2--------3---------|--------------------------|--------------------------|
---------------------|--0--0--0--0--0--0--0--0--|--3--3--3--3--3--3--3--3--|
---------------------|--------------------------|--------------------------|
                                                    
--------------------------|--------------------------|
--------------------------|--------------------------|
--------------------------|--------------------------|
--0--0--0--0--0--0--0--0--|--3--3--3--3--3--3--3--3--|
                                                     
--------------------------|--------------------------|
--------------------------|--------------------------|
--0--0--0--0--0--0--0--0--|--3--3--3--3--3--3--3--3--|
--------------------------|--------------------------|
                                                     
--------------------------|--------------------------|
--------------------------|--------------------------|
--------------------------|--------------------------|
--0--0--0--0--0--0--0--0--|--3--3--3--3--3--3--3--3--|
                                                                   
---------------------------------|---------------------------------|
---------------------------------|---------------------------------|
--0--0-0-0-0-0-0-0-0-0-0-0-0-0-0-|--3--3-3-3-3-3-3-3-3-3-3-3-3-3-3-|
---------------------------------|---------------------------------|
                                                                
---------------------------------|---------------------------------|
---------------------------------|---------------------------------|
---------------------------------|---------------------------------|
--0--0-0-0-0-0-0-0-0-0-0-0-0-0-0-|--3--3-3-3-3-3-3-3-3-3-3-3-3-3-3-|
                                                                    
---------------------------------|---------------------------------|
---------------------------------|---------------------------------|
--0--0-0-0-0-0-0-0-0-0-0-0-0-0-0-|--3--3-3-3-3-3-3-3-3-3-3-3-3-3-3-|
---------------------------------|---------------------------------|
                                                             
-------------------|------------------|----------------------|
-------------------|------------------|---------2--1--0------|
-------------------|------------------|--0-------------------|
--0----------------|------------------|----------------------|
                                                      
----------------------|------------------------------|
---------2--1--0------|-------------------------3----|
--0-------------------|--2--2-2-2-2-2-2-2-2-2-2------|
----------------------|------------------------------|
                                                                            
------------------------------|----------------------|----------------------|
-------------------------3----|---------2--1--0------|---------2--1--0------|
--2--2-2-2-2-2-2-2-2-2-2------|--0-------------------|--0-------------------|
------------------------------|----------------------|----------------------|
                                                            
------------------------------|------------------------------|
-------------------------3----|-------------------------3----|
--2--2-2-2-2-2-2-2-2-2-2------|--2--2-2-2-2-2-2-2-2-2-2------|
------------------------------|------------------------------|
                                                               
--------------------|--------------------|--------------------|
-----------3--------|--0--------2--------|-----------3--------|
--0-----------------|--------------------|--0-----------------|
--------------------|--------------------|--------------------|
                                                              
--------------------|---------------------|------------------|
--0--------2--------|---------------------|------------------|
--------------------|--2----2--1----------|------------------|
--------------------|---------------------|------------------|
                                                                            
----------------------|------------------|---------------------------------|
----------------------|------------------|--0--0-0-0-0-0-0-0-0-0-0-0-0-0-0-|
--2--2--2--1----------|------------------|---------------------------------|
----------------------|------------------|---------------------------------|
                                                                  
--------------------------------|---------------------------------|
--------------------------------|--0--0-0-0-0-0-0-0-0-0-0-0-0-0-0-|
--1--1-1-1-1-1-1----------------|---------------------------------|
-----------------3--3-3-3-3-3-3-|---------------------------------|
                                                                  
--------------------------------|---------------------------------|
--------------------------------|---------------------------------|
--1--1-1-1-1-1-1-3--3-3-3-3-3-3-|--2--2-2-2-2-2-2-2-2-2-2-2-2-2-2-|
--------------------------------|---------------------------------|
                                                                  
---------------------------------|---------------------------------|
--0--0-0-0-0-0-0-0-0-0-0-0-0-0-0-|---------------------------------|
---------------------------------|--1--1-1-1-1-1-1-1-1-1-1-1-1-1-1-|
---------------------------------|---------------------------------|
                                                                    
---------------------------------|---------------------------------|
---------------------------------|---------------------------------|
---------------------------------|--2--2-2-2-2-2-2-2-2-2-2-2-2-2-2-|
--3--3-3-3-3-3-3-3-3-3-3-3-3-3-3-|---------------------------------|
                                                                    
---------------------------------|---------------------------------|
--0--0-0-0-0-0-0-0-0-0-0-0-0-0-0-|---------------------------------|
---------------------------------|--1--1-1-1-1-1-1-1-1-1-1-1-1-1-1-|
---------------------------------|---------------------------------|
                                                                                
---------------------------------|----------------------|----------------------|
---------------------------------|--2-------------------|--2-------------------|
---------------------------------|---------2--1--0------|---------2--1--0------|
--3--3-3-3-3-3-3-3-3-3-3-3-3-3-3-|----------------------|----------------------|
                                                                               
----------------------|----------------------|---------------------------------|
--2-------------------|--2-------------------|---------------------------------|
---------2--1--0------|---------2--1--0------|---------------------------------|
----------------------|----------------------|--0--0-0-0-0-0-0-0-0-0-0-0-0-0-0-|
                                                                  
---------------------------------|---------------------------------|
---------------------------------|---------------------------------|
---------------------------------|--3--3-3-3-3-3-3-3-3-3-3-3-3-3-3-|
--1--1-1-1-1-1-1-1-1-1-1-1-1-1-1-|---------------------------------|
                                                                   
---------------------------------|---------------------------------|
---------------------------------|---------------------------------|
--2--2-2-2-2-2-2-2-2-2-2-2-2-2-2-|---------------------------------|
---------------------------------|--0--0-0-0-0-0-0-0-0-0-0-0-0-0-0-|
                                                                  
---------------------------------|---------------------------------|
---------------------------------|---------------------------------|
---------------------------------|--3--3-3-3-3-3-3-3-3-3-3-3-3-3-3-|
--1--1-1-1-1-1-1-1-1-1-1-1-1-1-1-|---------------------------------|
                                                                   
---------------------------------|---------------------------------|
---------------------------------|---------------------------------|
--2--2-2-2-2-2-2-2-2-2-2-2-2-2-2-|---------------------------------|
---------------------------------|--0--0-0-0-0-0-0-0-0-0-0-0-0-0-0-|
                                                                   
---------------------------------|---------------------------------|
---------------------------------|---------------------------------|
---------------------------------|--2--2-2-2-2-2-2-2-2-2-2-2-2-2-2-|
--3--3-3-3-3-3-3-3-3-3-3-3-3-3-3-|---------------------------------|
                                                                   
---------------------------------|---------------------------------|
--0--0-0-0-0-0-0-0-0-0-0-0-0-0-0-|---------------------------------|
---------------------------------|---------------------------------|
---------------------------------|--0--0-0-0-0-0-0-0-0-0-0-0-0-0-0-|
                                                                   
---------------------------------|---------------------------------|
---------------------------------|---------------------------------|
---------------------------------|--2--2-2-2-2-2-2-2-2-2-2-2-2-2-2-|
--3--3-3-3-3-3-3-3-3-3-3-3-3-3-3-|---------------------------------|
                                                                   
---------------------------------|---------------------------------|
--0--0-0-0-0-0-0-0-0-0-0-0-0-0-0-|---------------------------------|
---------------------------------|--0--0-0-0-0-0-0-0-0-0-0-0-0-0-0-|
---------------------------------|---------------------------------
                                                                    
---------------------------------|---------------------------------|
--3--3-3-3-3-3-3-3-3-3-3-3-3-3-3-|--4--4-4-4-4-4-4-4-4-4-4-4-4-4-4-|
---------------------------------|---------------------------------|
---------------------------------|---------------------------------|
                                                               
--------------------------------|-----------------------------|
--0--0-0-0-0-0-0-2--2-2-2-2-2-2-|-----------------------------|
--------------------------------|--0--0-0-0-0-0-0-0-0-0----2--|
--------------------------------|-----------------------------|
                                                          
----------------------|----------------------------------|
---------0----2----4--|--4-4-4-4-4-4-4-4-4-4-4-4-4-4-4-4-|
----3-----------------|----------------------------------|
----------------------|----------------------------------|
                                                                 
--------------------------------|---------------------------------|
--0--0-0-0-0-0-0-2--2-2-2-2-2-2-|---------------------------------|
--------------------------------|--0--0-0-0-0-0-0-0-0-0-0-0-0-0-0-|
--------------------------------|---------------------------------|
                                                                   
---------------------------------|---------------------------------|
---------------------------------|---------------------------------|
--3--3-3-3-3-3-3-3-3-3-3-3-3-3-3-|---------------------------------|
---------------------------------|--3--3-3-3-3-3-3-3-3-3-3-3-3-3-3-|
                                                        
---------------------|---------------------------------|
--2--------1----0----|---------------------------------|
---------------------|--0--0-0-0-0-0-0-0-0-0-0-0-0-0-0-|
---------------------|---------------------------------|
                                                                   
---------------------------------|---------------------------------|
---------------------------------|---------------------------------|
--3--3-3-3-3-3-3-3-3-3-3-3-3-3-3-|---------------------------------|
---------------------------------|--3--3-3-3-3-3-3-3-3-3-3-3-3-3-3-|
                                                                          ----------------0----|--------------------------|--------------------------|
--2--------3---------|--------------------------|--------------------------|
---------------------|--0--0--0--0--0--0--0--0--|--3--3--3--3--3--3--3--3--|
---------------------|--------------------------|--------------------------|
                                                      
--------------------------|--------------------------|
--------------------------|--------------------------|
--------------------------|--------------------------|
--0--0--0--0--0--0--0--0--|--3--3--3--3--3--3--3--3--|
                                                      
--------------------------|--------------------------|
--------------------------|--------------------------|
--0--0--0--0--0--0--0--0--|--3--3--3--3--3--3--3--3--|
--------------------------|--------------------------|
                                                      
--------------------------|--------------------------|
--------------------------|--------------------------|
--------------------------|--------------------------|
--0--0--0--0--0--0--0--0--|--3--3--3--3--3--3--3--3--|
                                                                    
---------------------------------|---------------------------------|
---------------------------------|---------------------------------|
--0--0-0-0-0-0-0-0-0-0-0-0-0-0-0-|--3--3-3-3-3-3-3-3-3-3-3-3-3-3-3-|
---------------------------------|---------------------------------|
                                                                    
---------------------------------|---------------------------------|
---------------------------------|---------------------------------|
---------------------------------|---------------------------------|
--0--0-0-0-0-0-0-0-0-0-0-0-0-0-0-|--3--3-3-3-3-3-3-3-3-3-3-3-3-3-3-|
                                                                   
---------------------------------|---------------------------------|
---------------------------------|---------------------------------|
--0--0-0-0-0-0-0-0-0-0-0-0-0-0-0-|--3--3-3-3-3-3-3-3-3-3-3-3-3-3-3-|
---------------------------------|---------------------------------|
                                                                        
-------------------|------------------|---------------------------------|
-------------------|------------------|---------------------------------|
-------------------|------------------|--0--0-0-0-0-0-0-0-0-0-0-0-0-0-0-|
--0----------------|------------------|---------------------------------|
                                                                  
---------------------------------|---------------------------------|
---------------------------------|---------------------------------|
--3--3-3-3-3-3-3-3-3-3-3-3-3-3-3-|---------------------------------|
---------------------------------|--0--0-0-0-0-0-0-0-0-0-0-0-0-0-0-|
                                                                    
---------------------------------|---------------------------------|
---------------------------------|---------------------------------|
---------------------------------|--0--0-0-0-0-0-0-0-0-0-0-0-0-0-0-|
--3--3-3-3-3-3-3-3-3-3-3-3-3-3-3-|---------------------------------|
                                                                          
---------------------------------|-------------------|-------------------|
---------------------------------|-------------------|-------------------|
--3--3-3-3-3-3-3-3-3-3-3-3-3-3-3-|-------------------|-------------------|
---------------------------------|--0----------------|--3----------------|
                                                                             
-------------------|------------------|-------------------|------------------|
-------------------|------------------|-------------------|------------------|
--0----------------|------------------|--0----------------|------------------|
-------------------|------------------|-------------------|------------------|
                                                                           
------------------|------------------|------------------|------------------|
------------------|------------------|------------------|------------------|
------------------|------------------|------------------|------------------|
------------------|------------------|------------------|------------------|
                                                                           
------------------|------------------|------------------|------------------|
------------------|------------------|------------------|------------------|
------------------|------------------|------------------|------------------|
------------------|------------------|------------------|------------------|
                     
-------------------||
-------------------||
--0----------------||
-------------------||
Composição de André Olbrich
Colaboração e revisão:
  • Taino Vieira
315 exibições

0 comentários

Ver todos os comentários

Conseguiu tocar?

0 Tocaram 0 Ainda não

Grave um vídeo tocando Ashes To Ashes e nos envie!

00:00 / 00:00
Outros vídeos desta música
Repetir Qualidade Automático
Outros vídeos desta música
00:00 / 00:00
Automático

Cifra Club Pro

Aproveite o Cifra Club com benefícios exclusivos e sem anúncios
Cifra Club Pro
Aproveite o Cifra Club com benefícios exclusivos e sem anúncios
OK