Cifra Club

Blood Tears

Blind Guardian

Cifra: Principal (violão e guitarra)
tom: E
INTRO (2x)
E||-9---7-9~-|-11-12-7~--|-9---7-9~-|-11-12-7~--|----9-11-12~-|
B||---9------|-----------|---9------|-----------|-10----------|

E||-14-16-12~--|----9-11-12-|----11-12-----|
B||------------|-10---------|-12-------12~-|

        C#
             Welcome to my realm    
E||----------------------14-16-14-12-11-12-11----9-|
B||-------------------------------------------12---|
        C#
             We are both condemned to live    
E||----------------------14-16-14-12-11-12-11----9-|
B||-------------------------------------------12---|
         A
It's a   dark fate I            can't   hear your calls    I can't hear your calls...
        C#
             The Eternal life   I see it still burns 
E||----------------------14-16-14-12-11-12-11----9-|
B||-4h5-4-------------------------------------12---|
G||-------4-6--------------------------------------|
        C#
              Each night I cry in pain    
gtr.2
E||----------------------14-16-14-12-11-12-11----9-|
B||-------------------------------------------12---|
        A                 B
            Alive         Though the end  appears my friend
      G#     G#    G#   C#    C#   A       A
     And blood tears I cry. You've search and you've found  
     B                        C#
    Cut off your old friends hand..........
    C#                     C#                         A
E||-9---7-9~-|-11-12-7~--|-9---7-9~-|-11-12-7~--|----9-11-12~-|
B||---9------|-----------|---9------|-----------|-10----------|
                  A           B
E||-14-16-12~--|----9-11-12-|----11-12-----|
B||------------|-10---------|-12-------12~-|
     C#                       C               F   E
     My mind's               in frozen dreams 
     C#                       C               F   E
  The rotten flesh            of bitter lies  
     C#                       C               F   E
     Welcome to where time stands still 
     C#                       C               F   E
    Noone lives  and   noone  ever  will
     C# - DIST OFF
         Can't hold it, It burns    
E||----------------------14-16-14-12-11-12-11----9-|
B||-------------------------------------------12---|
     C#
         Each night I cry in pain   
E||----------------------7~---11-12-11~-7--9~------|
      G#     G#    G#   C#    C#   A       A         B
     And blood tears I cry      endless grief remaind inside  
      G#     G#    G#   C#    C#   A       A         B
     And blood tears I cry      endless grief remaind inside  
     C#               A               B                 G#
   It seems so cleary bent the bow  'couse life in me is gone
     A                                A
    And a cruel wind's blowing cold. And a cruel wind's blowing cold. 
     B   C#
    In  blame
     C#
      And life it shall wane    
E||----------------------14-16-14-12-11-12-11----9-|
B||-------------------------------------------12---|
     C#
         Each night I cry in pain   
E||----------------------7~---11-12-11~-7--9~------|
      G#     G#    G#   C#    C#   A       A         B
     And blood tears I cry      endless grief remained inside  
      G#     G#    G#   C#    C#   A       A         B
     And blood tears I cry      endless grief remained inside  
      G#     G#    G#   C#    C#   A       A         
     And blood tears I cry,  endless  grief  remained   
     B                        C#
    Cut off your old friends hand..........
(2x)
    C#                     C#                         A
E||-9---7-9~-|-11-12-7~--|-9---7-9~-|-11-12-7~--|----9-11-12~-|
B||---9------|-----------|---9------|-----------|-10----------|
                  A           B
E||-14-16-12~--|----9-11-12-|----11-12-----|
B||------------|-10---------|-12-------12~-|
00:00 / 00:00
Outros vídeos desta música
Repetir
Outros vídeos desta música
Composição de André Olbrich
Colaboração e revisão:
  • Pedro Machado
9.103 exibições
    • ½ Tom
    • A
    • Bb
    • B
    • C
    • Db
    • D
    • Eb
    • E
    • F
    • F#
    • G
    • Ab
  • Adicionar à lista

    0 comentários

    Ver todos os comentários

    Conseguiu tocar?

    0 Tocaram 0 Ainda não

    Grave um vídeo tocando Blood Tears e nos envie!

    00:00 / 00:00

    Cifra Club Pro

    Aproveite o Cifra Club com benefícios exclusivos e sem anúncios
    Cifra Club Pro
    Aproveite o Cifra Club com benefícios exclusivos e sem anúncios
    OK