Cifra Club

Aprenda

Curse My Name

Blind Guardian

Cifra: Principal (violão e guitarra)
tom: G
[Intro] Am  G  Am
        Am  G  Am
        F  C  G  Am
        Am  G  Am

e|-------7-8-7h8p7------------|-------7-8-7h8p7----------|
B|---10------------10-8-10----|---10------------10-8-10~-|
G|-9-----------------------9~-|-9------------------------|
D|----------------------------|--------------------------|
A|----------------------------|--------------------------|
E|----------------------------|--------------------------|

e|-8-10--10-8-7-8-7h8p7----7---------|---------7-8-7h8p7---------|
B|----------------------10---10-8-10~|---10-10-----------10-8-10~|
G|-----------------------------------|-9-------------------------|
D|-----------------------------------|---------------------------|
A|-----------------------------------|---------------------------|
E|-----------------------------------|---------------------------|

Verso 1:
e|-------7-8-7h8p7------------|-------7-8-7h8p7----------|
B|---10------------10-8-10----|---10------------10-8-10~-|
G|-9-----------------------9~-|-9------------------------|
D|----------------------------|--------------------------|
A|----------------------------|--------------------------|
E|----------------------------|--------------------------|

e|-8-10--10-8-7-8-7h8p7----7---------|---------7-8-7h8p7---------|
B|----------------------10---10-8-10~|---10-10-----------10-8-10~|
G|-----------------------------------|-9-------------------------|
D|-----------------------------------|---------------------------|
A|-----------------------------------|---------------------------|
E|-----------------------------------|---------------------------|

    Am        G                    Am
The tenure of kings and their magistrates
   Am          G         Am
By good men it must be deposed
    F        C           G         Am
The covenant made can be voided at once
    Am         G        Am
Disanoint him , take his crown

Verso 2:
e|-----------------------------|--------------------------|
B|-----3-5-6-5h6p3---5---3-----|-----3-5-6-5h6p3---5---3~-|
G|-5-5-------------5---5---4---|-5-5-------------5---5----|
D|---------------------------5-|--------------------------|
A|-----------------------------|--------------------------|
E|-----------------------------|--------------------------|

e|-5-5-3--------------------3~-|-5-5-3---------------|
B|-------6-5~---6-5h6p5-3-5----|-------6-5h6p5-3-----|
G|------------5----------------|-----------------5---|
D|-----------------------------|-------------------5-|
A|-----------------------------|---------------------|
E|-----------------------------|---------------------|

e|-------------|-5-5-3-------------------3~|-5-5-3---------------|
B|-------3-5-6-|-------6-5~--6-5h6p5-3-5---|-------6-5h6p5-3-----|
G|-2-4-5-------|---------------------------|-----------------5---|
D|-------------|---------------------------|-------------------5-|
A|-------------|---------------------------|---------------------|
E|-------------|---------------------------|---------------------|

     Am              G             Am         G
They plead for their king And they pity their lord
Am         G                 Am G
Put him to death, that's what I say
       F        C          G         Am
Though never so just these dancing divines
  C            F          G
Endue him with reason and grace
        F         C        G          Am
They're gibberish Words dissemble the facts
      C         F            G
God's will They falsely will claim

Refrão 1:
e|----7-8-------------------|----7-8--------------------------|
B|-10-----10-10-10----10-8~-|-10-----10-10-10----10-8---------|
G|-----------------10-------|-----------------10------10-9-7~-|
D|--------------------------|---------------------------------|
A|--------------------------|---------------------------------|
E|--------------------------|---------------------------------|

e|---7-8------------------|---7-8--------------------------------|
B|10-----10-10-10----10-8~|10-----10-10-10----10-8---------------|
G|----------------10------|----------------10------10-9-7--------|
D|------------------------|-------------------------------10-9-7~|
A|------------------------|--------------------------------------|
E|------------------------|--------------------------------------|

        C     F  G
Let him curse my name
         F             C        G   Am
On these blood stained pages of misery
        C         F         G
Let him call me a tyrant so cruel
        Am    F  C          G          Am
Let him curse my name But remember the truth

2x: Am  G  Am  F  C  G  Am

e|--------------------------------|----------------------------|
B|------------------8-------------|-------------------8--------|
G|--------7-9-10------10-9-7-10-9~|--------7-9-10-------10-9-7~|
D|-7-9-10--------10---------------|-7-9-10---------10----------|
A|--------------------------------|----------------------------|
E|--------------------------------|----------------------------|

e|------------------------------|--------------------------------|
B|-----------------8------------|-----------------8--------------|
G|--------7-9-10----10-9-7-10-9~|--------7-9-10----10-9-7--------|
D|-7-9-10--------10-------------|-7-9-10--------10-------10-9-7~-|
A|------------------------------|--------------------------------|
E|------------------------------|--------------------------------|


Verso 3:
   Am         G         Am
So there they come From everywhere
     Am        G               Am
They witness revenge Hear them calling
       Am         G           Am
You're laden with blood It's spilled everywhere
    Am       G   Am
And sorrow's everlasting

e|------------------------|--------------------|
B|------------------------|--------------------|
G|-----4-5-7-4h5h7-4------|---------9-7-5h7-4~-|
D|---7---------------5/7~-|-----6-9------------|
A|-7----------------------|-8-7----------------|
E|------------------------|--------------------|

e|------------------------|--------------------------|
B|------------------------|--------------------------|
G|-----4-5-7-4h5h7-4------|---------9-7-5h7-4~-------|
D|---7---------------5/7~-|-----6-9---------------7~-|
A|-7----------------------|-8-7-----------------7----|
E|------------------------|--------------------------|

                       F
Oh you'll be aware now
                                 E
That trial is near It's close at hand
    F             E
The masquerade is over
G  E
It ends

Intro (Choir part): Am  C  G  D
                   (Am  C  G  D)
                   (Am  C  G  D)
                   (Am  C  G  Am)(4x)

Verso 4:
F            C      G         F
Falsely they praise Deify his majesty
     F         C            G             F
He's blessed annointed's Fulfilling god's will
F          C      F            C
Curse them all No further he's king
   F               C            F         Am
Providence brought him straight into our hands

Refrão 2:
e|----7-8-------------------|----7-8--------------------------|
B|-10-----10-10-10----10-8~-|-10-----10-10-10----10-8---------|
G|-----------------10-------|-----------------10------10-9-7~-|
D|--------------------------|---------------------------------|
A|--------------------------|---------------------------------|
E|--------------------------|---------------------------------|

e|---7-8------------------|---7-8--------------------------------|
B|10-----10-10-10----10-8~|10-----10-10-10----10-8---------------|
G|----------------10------|----------------10------10-9-7--------|
D|------------------------|-------------------------------10-9-7-|
A|------------------------|--------------------------------------|
E|------------------------|--------------------------------------|

        C     F  G
Let him curse my name
         F             C        G   Am
On these blood stained pages of misery
        C         F         G
Let him call me a tyrant so cruel
        Am    F  C          G          Am
Let him curse my name But remember the truth

2x: Am  G  Am  F  C  G  Am

e|-13h15-------------12----15-13-12----------12-13-|
B|-------13-13-13-15----15----------15-13-15-------|
G|-------------------------------------------------|
D|-------------------------------------------------|
A|-------------------------------------------------|
E|-------------------------------------------------|

e|-13h15-------------12-15-13-12----------12-13-|
B|-------13-13-13-15-------------15-13-15-------|
G|----------------------------------------------|
D|----------------------------------------------|
A|----------------------------------------------|
E|----------------------------------------------|

e|-13h15-------------12----15-13-12----------12-13-|
B|-------13-13-13-15----15----------15-13-15-------|
G|-------------------------------------------------|
D|-------------------------------------------------|
A|-------------------------------------------------|
E|-------------------------------------------------|

e|-13h15-------------12-15-13-12--------|
B|-------13-13-13-15-------------15-13~-|
G|--------------------------------------|
D|--------------------------------------|
A|--------------------------------------|
E|--------------------------------------|

Verso 5:
    Am        G            Am
Now let him appear There's joy in the air
    Am        G          Am
Now witness a new age is dawning
   Am      G          Am
In trouble alone He's facing despair
 Am          G      Am
Awaiting his bitter ending

Verso 6:
e|-5-5-3--------------------3~-|-5-5-3---------------|
B|-------6-5~---6-5h6p5-3-5----|-------6-5h6p5-3-----|
G|------------5----------------|-----------------5---|
D|-----------------------------|-------------------5-|
A|-----------------------------|---------------------|
E|-----------------------------|---------------------|

e|-------------|-5-5-3-------------------3~|-5-5-3---------------|
B|-------3-5-6-|-------6-5~--6-5h6p5-3-5---|-------6-5h6p5-3-----|
G|-2-4-5-------|---------------------------|-----------------5---|
D|-------------|---------------------------|-------------------5-|
A|-------------|---------------------------|---------------------|
E|-------------|---------------------------|---------------------|

   F5  C5        G5        A5         C5         F5         G5
We all know he's quilty as charged By punishment due to his crime
   F5   C5       G5     A5    C5            F5             G5
We sacrifice the wicked king Aknowledged by scriptures and law

Refrão 3:
e|----7-8-------------------|----7-8--------------------------|
B|-10-----10-10-10----10-8~-|-10-----10-10-10----10-8---------|
G|-----------------10-------|-----------------10------10-9-7~-|
D|--------------------------|---------------------------------|
A|--------------------------|---------------------------------|
E|--------------------------|---------------------------------|

e|---7-8------------------|---7-8--------------------------------|
B|10-----10-10-10----10-8~|10-----10-10-10----10-8---------------|
G|----------------10------|----------------10------10-9-7--------|
D|------------------------|-------------------------------10-9-7~|
A|------------------------|--------------------------------------|
E|------------------------|--------------------------------------|

        C5    F5 G5
Let him curse my name
         F5            C5       G5  A5
On these blood stained pages of misery
        C5        F5        G5
Let him call me a tyrant so cruel
        A5    F5 C5         G5         A5    C5 F5 G5
Let him curse my name But remember the truth


e|--------------------------------|----------------------------|
B|------------------8-------------|------------------8---------|
G|--------7-9-10------10-9-7-10-9~|--------7-9-10-------10-9-7~|
D|-7-9-10--------10---------------|-7-9-10---------10----------|
A|--------------------------------|----------------------------|
E|--------------------------------|----------------------------|

e|--------------------------------|----------------------------|
B|------------------8-------------|------------------8---------|
G|--------7-9-10------10-9-7-10-9~|--------7-9-10------10-9-7~-|
D|-7-9-10--------10---------------|-7-9-10--------10-----------|
A|--------------------------------|----------------------------|
E|--------------------------------|----------------------------|

         F5            C5       G5  A5
On these blood stained pages of misery
        C5        F5        G5
Let him call me a tyrant so cruel
        A5    F5 C5         G5         A5
Let him curse my name But remember the truth

Outro:
A5               F5      G5
We won't take it anymore Our voice it shall be heard
A5               F5      C5           G5         A5
We won't take it anymore But I will remember the truth
A5               F5      G5
We won't take it anymore Our voice it shall be heard
A5               F5      C5           G5         A5
We won't take it anymore But I will remember the truth
Compositor não encontrado.
Colaboração e revisão:
  • Taino Vieira
2.020 exibições
    • ½ Tom
    • A
    • Bb
    • B
    • C
    • Db
    • D
    • Eb
    • E
    • F
    • F#
    • G
    • Ab
  • Adicionar à lista

    0 comentários

    Ver todos os comentários

    Conseguiu tocar?

    0 Tocaram 0 Ainda não

    Grave um vídeo tocando Curse My Name e nos envie!

    00:00 / 00:00
    Outros vídeos desta música
    Repetir Qualidade Automático
    Outros vídeos desta música
    00:00 / 00:00
    Automático

    Cifra Club Pro

    Aproveite o Cifra Club com benefícios exclusivos e sem anúncios
    Cifra Club Pro
    Aproveite o Cifra Club com benefícios exclusivos e sem anúncios
    OK