Cifra Club

Aprenda

Harvest of Sorrow

Blind Guardian

Cifra: Principal (violão e guitarra)
tom: G
Afinção: Ré maior
Escrito por: Thiago Boffo Sanches

- - - - - - - - - - - - - - - - - -
-----------------------------------
Legenda:
^ - ligadura

introdução:
Base: (RIFF 1) 4 vezes

Solo:
Andre Olbrich:
D|----------------------------------------------------------------------------------------|
A|-8--8^10-7---12-8^10^8-10-8----------10-8-8--10-12-------12-10-8---7^8------8--7--------|
F|----------------------------11-9--------------------11-9---------------9-------------9--|
C|-----------------------------------------------------------------------------------9----|
G|----------------------------------------------------------------------------------------|
D|----------------------------------------------------------------------------------------|

D|-------------------------------------------------------|
A|-7^8-7^8^7---10-8-8--7^8-7^8^7-------7-8-10-8---7^8----|
F|-------------------------------9-7-9----------------9--|
C|-------------------------------------------------------|
G|-------------------------------------------------------|
D|-------------------------------------------------------|

- - - - - - - - - - - - - - - - - - - - - - - - - - - - - - - - - - - - - -

--------------------------------------
LEGENDA|

V - palhetada para baixo
^ - palhetada para cima

 RIFF 1|
   v    v    v    ^  v  ^  v
D|----------------------------|
A|-8----7----8----8--8--8--8--|
F|-9----7----9----9--9--9--9--|
C|-9----9----9----9--9--9--9--|
G|-7----7----7----7--7--7--7--|
D|----------------------------|

 RIFF 2|
D|-----------------------------------------------------7-----------------------|
A|-8--8^10-7----7^8------7^8-7^8^7-----10-8-8-----8^10------8^10-8-----7^8-----|
F|------------------9------------------------------------------------------9---|
C|-----------------------------------------------------------------------------|
G|-----------------------------------------------------------------------------|
D|-----------------------------------------------------------------------------|

(RIFF 1) 4 Vezes
(RIFF 2) 2 vezes

She is gone

Leaves are falling down

The tear maiden will not return

The seal of oblivion is broken

And a pure love's been turned into sin


 - no verso acima toque o riff 1 e 2 ao mesmo tempo

----------------------------------------------------------

RIFF 3|

D|-------------------------|
A|--------3-6-5-6-5-3-5-3--|
F|------5------------------|
C|----5--------------------|
G|-3-----------------------|
D|-------------------------|

       C*
 At the dawn of our living time
Bm
 Hope may cover all cries
C*
 Truth lurks hidden in the shadows
Bm                           Em
 Dreams might be filled with lies
 C                  Em
 Soon there will be light
 C              Em   C  Em  C
 Pain remains inside


 - no verso acima um dos violões tocará o 'riff 3' toda
   vez que houver "C*"

---------------------------------------------------------
(RIFF 1) 4 Vezes
(RIFF 2) 2 vezes
 
 Suddenly it seemed so clear

 All the blindness was taken away

 She closed her eyes

 And she called out my name

 She was never ever seen again


 - no verso acima toque o riff 1 e 2 ao mesmo tempo

--------------------------------------------------------

 Chorus|
 G          D
 Harvest of Sorrow
      C
 Your seed is grown
      Em           Bm      C
 In a frozen world full of cries
          G           D
 When the ray of life shrinks
       C                    Em   D   C
 Shall cold winter nights begiiiiiiiiin

------------------------------------------------------

SOLO 1|

D|----------------------------------------------------------------7-8-10-8-7^8^7-------------------------7-----------|
A|-7^8-7^8^7--------------------------------7-8-10-7-8-7^8^7-5^7-----------------8-7------7^8^7---7-8-10---10-8-7----|
F|-----------9-7------7-----------------7-9-------------------------------------------9-7-------9-----------------9--|
C|---------------9--7---9-7-5^7-7\9-7-5------------------------------------------------------------------------------|
G|-------------------------------------------------------------------------------------------------------------------|
D|-------------------------------------------------------------------------------------------------------------------|

D|----------------------------------------------------------------------|
A|----7^8^7------------------------------------------------10-----------|
F|-7--------9^11-7^9--------------------9----9-11-12--11-9-----12-11-9--|
C|-------------------9--7-----7-9-10\12---12----------------------------|
G|-------------------------10-------------------------------------------|
D|----------------------------------------------------------------------|

BASE DO SOLO: D  Em  G  Bm - 4 VEZES
------------------------------------------- -- -- -- -- -- -- -- - - - - - - - - - - -  -  -  -  -  -  -

(RIFF 1) 4 Vezes
(RIFF 2) 2 vezes

 She is gone

 And I fall from grace

 No healing charm covers my wounds

 Fooled's the dawn

 And so am I

 Fooled by life and a bitter doom

 To bring you the end of the day


 - no verso acima toque o riff 1 e 2 ao mesmo tempo

------------------------------------------------------------
 
RIFF 3|

D|-------------------------|
A|--------3-6-5-6-5-3-5-3--|
F|------5------------------|
C|----5--------------------|
G|-3-----------------------|
D|-------------------------|


        C
 At the dawn of our living time
Bm
 Hope it soon will pass by
C
 Facing a darkness
    G     D
 I stand alone


 - no verso acima um dos violões tocará o 'riff 3' toda
   vez que houver "C*"
---------------------------------

 Chorus|
 G          D
 Harvest of Sorrow
      C
 Your seed is grown
      Em           Bm      C
 In a frozen world full of cries
          G           D
 When the ray of life shrinks
       C                    Em   D   C
 Shall cold winter nights begiiiiiiiiin
-------------------------------------------------------------------------------------------

SOLO 2|

    D            Em   G      Bm         D          Em        G      Bm 

 D|-2^3-2^3^2----------------------------------------------------------------------|
 A|-----------3-------------------------------------5---5-7-8---7-5-10-------------|
 F|-------------2^4---0--2^4----------------2-4-5\7---7------------------12-11-9---|
 C|--------------------------4--5-4^5^4-2-5----------------------------------------|
 G|--------------------------------------------------------------------------------|
 D|--------------------------------------------------------------------------------|

  Em         G                Em           C                 Em

 D|---------------------------------------------------------------|
 A|-12-8---8-12^13-12-10-12-8-----12-8---8-10-12^10^8-10-8--------|
 F|------9--------------------9--------9-------------------11-9---|
 C|---------------------------------------------------------------|(4X)
 G|---------------------------------------------------------------|
 D|---------------------------------------------------------------|
Composição de André Olbrich / Charly Bauerfeind / Hansi Kürsch / Marcus Siepen / Thomen Stauch
Colaboração e revisão:
  • Thiago Sanches
13.033 exibições
    • ½ Tom
    • A
    • Bb
    • B
    • C
    • Db
    • D
    • Eb
    • E
    • F
    • F#
    • G
    • Ab
  • Adicionar à lista

    0 comentários

    Ver todos os comentários

    Conseguiu tocar?

    0 Tocaram 0 Ainda não

    Grave um vídeo tocando Harvest of Sorrow e nos envie!

    00:00 / 00:00
    Outros vídeos desta música
    Repetir Qualidade Automático
    Outros vídeos desta música
    00:00 / 00:00
    Automático

    Cifra Club Pro

    Aproveite o Cifra Club com benefícios exclusivos e sem anúncios
    Cifra Club Pro
    Aproveite o Cifra Club com benefícios exclusivos e sem anúncios
    OK