Quest For Tanelorn

Blind Guardian

Composição de: André Olbrich / Marcus Siepen
tom: G
                               Quest for Tanelorn

                              Taken from the album
                              Somewhere Far Beyond

                                 Transcribed by
                   Mikko Issakainen (*)

||-----------------|-----------------|-----------------|-----------------||
||-----------------|-----------------|-----------------|-----------------||
||*----0-----------|-----------------|-------0-3-------|-2-----0--------*||
||*--0---0-4-------|-----------------|-----0-------0---|---0------------*||
||-2---------------|-----------------|---1-----------1-|-----1-----------||
||-----------------|-----------------|-3---------------|-----------------||

|-----------------|-----------------|-----------------|-----------------|
|-----------------|-----------------|----------H------|--------------H--|
|-----0-----0-----|-4-----0-------0-|-----0---2-3-----|-2-----0-----2-3-|
|---2---2-4---4-2-|---2-----2---4---|---2---2-----2---|---2-----2-------|
|-3---------------|-----3-----3-----|-3-------------3-|-----3-----3-----|
|-----------------|-----------------|-----------------|-----------------|

|-----------------|-----------------|-----------------|-----------------|
|-15b----(17)-(15)|-15~~\/\/\-------|-----------------|-----------------|
|-----------------|-------------14--|-14b---(16)------|-----------------|
|-----------------|-----------------|-----------------|-----------------|
|-----------------|-----------------|-----------------|-----------------|
|-----------------|-----------------|-----------------|-----------------|
|
|-----------------|-----------------|---------------0-|-----------------|
|----------0------|-----------------|---------1-----0-|-----------------|
|-----------------|-----------------|-----------0-----|-----------------|
|-----2-----------|-----------------|-----2-------2---|-----------------|
|---2---2---------|-----------------|---2---2---------|-----------------|
|-0---------------|-----------------|-0---------------|-----------------|

|-----------------|-----------------|-----------------|-----------------|
|-----------------|-----------------|-----------------|-----------------|
|-----------------|-----------------|-----------------|-----------------|
|-----------------|-----------------|-----------------|-----------------|
|-----------------|-----------------|-----------------|-----------------|
|-----------------|-----------------|-----------------|-----------------|
|
|---------0-------|-----------------|---------0-------|---------0-------|
|-------------0---|-1-----3-----1---|-------------0---|-------0---------|
|---------------0-|---0-----0-----0-|---------------0-|-----0-----------|
|-----2-----------|-----2-----2-----|-----2-----------|---2-------------|
|-------2---------|-----------------|-------2---------|-1---------------|
|-0---------------|-----------------|-0---------------|-----------------|

|-----------------|-----------------|-----------------|-----------------|
|-----------------|-----------------|-----------------|-----------------|
|-----------------|-----------------|-----------------|-----------------|
|-----------------|-----------------|-----------------|-----------------|
|-----------------|-----------------|-----------------|-----------------|
|-----------------|-----------------|-----------------|-----------------|
|
|---------0-------|-----------------|---------0-------|-----------------|
|-----------------|-1-----3-----1---|-----------------|-----------------|
|-------------0---|---0-----0-----0-|-------------0---|-----------------|
|-----2---------2-|-----2-----2-----|-----2---------2-|-----------------|
|-------2---------|-----------------|-------2---------|-----------------|
|-0---------------|-----------------|-0---------------|-----------------|
Página 1 / 1

Letras e título
Acordes e artista

resetar configurações
OK