Welcome to dying

Blind Guardian

Composição de: André Olbrich / Hansi Kürsch
tom: D
intro 

Bm -- A : -- G   x2
Bm -- A : -- G : ------ Em ------ F#m

INTRO                                                   VERSE 1

e|----------------------------------------------------|---------------------|
B|----------------------------------------------------|---------------------|
G|----------------------------------------------------|---------------------|
D|----------------------------------------------------|---------------------|
A|-10-X8--6--X-X--10-X4-X6--X-X----10-X4-X6--X--3--5--|---10-------10-8--10-|
E|-8--X6--4--X-X--8--X6-X4--X-X----8--X6-X4--X--1--3--|---8-8-8...-8--6--8--|
                                                      p.m.  . .
                      
e|--------------------|
B|--------------------|
G|--------------------|
D|--------------------|
A|--10-8--6------3--5-|
E|--8--6--4------1--3-|

LEAD 1
e|----------------------------------13-------------------------------------13|
B|----16-15-13-15-16-------16-15-13-----15-----16-15-13-15-16-----16-15-13---|
G|-13----------------13~-------------------13~----------------13~------------|
D|---------------------------------------------------------------------------|
A|---------------------------------------------------------------------------|
E|---------------------------------------------------------------------------|
              
e|-----------|
B|--13~\-----|
G|-----------|
D|-----------|
A|-----------|
E|-----------|

VERSE 2
e|---------------------------------------------------------------------------|
B|---------------------------------------------------------------------------|
G|---------------------------------------------------------------------------|
D|---------------------------------------8-----------------------------------|
A|---10-----------------6----------------6-6-6-6-6-6-6-6--8---------------6--|
E|---8--8-8-8-8-8-8-8-8-4-4-4-4-4-4-4-4-------------------6-6-6-6-6-6-6-6-4-4|
p.m.    . . . . . . . .   . . . . . . .    . . . . . . .    . . . . . . .   .

                                  first ending
e|-----------------------------|--------------------|
B|-----------------------------|--------------------|
G|-----------------------------|------------A.h-----|
D|-----------------------------|-------------5~----\|
A|-------------6---------------|-5------------------|
E|-4-4-4-4-4-4-4-4-4-4-4-4-4-4-|-3-3-3-3-3-3--------|
p.m. . . . . .   . . . . . . .     . . . . .

    second ending             Chorus
e|-------------------------|--------------------------------|
B|----10/12-9--------------|--------------------------------|
G|------------10-10h12~\---|--------------------------------|
D|-------------------------|------------8----------10--8----|
A|-------------------------|--10---6----6----8--10-8---6--8-|
E|-------------------------|--8----4---------6--8---------6-|

VERSE 3
e|------------------------------------------|
B|------------------------------------------|
G|-------------------------------6hb(7)r(7)-|
D|-------------------------5--6-------------|
A|----6--------------------3--4-------------|
E|----4--4--4--4--4--4--4-------------------|
         .  .  .  .  .  .

e|----------------------------------------------------|
B|----------------------------------------------------|
G|----------------------------------------6hb(7)r(7)--|
D|-----------------------------------5--6-------------|
A|---5------------3--6---5-----------3--4-------------|
E|---3-3-3-3-3...-1--4---3-3-3-3-...------------------|


VERSE 4

   Play this figure twice
e|---------------------------------------------------------------------------|
B|---------------------------------------------------------------------------|
G|---------------------------------------------------------------------------|
D|----------------------------9-9-9-9-9--------------------------------------|
A|---10-10-10-10-10-10-10-10------------11-11-11-8-8-8-8h10~---10-10-10-10-10|
E|---------------------------------------------------------------------------|
  p.m.. .. .. ..    .. .. ..    . . . .    .. ..   . .         .. .. ..    ..

e|----------------------------------------------|
B|----------------------------------------------|
G|----------------------------------------------|
D|-------9-9-9-9-9--10-10-10-9-9-9-----------9~-|
A|-10-10---------------------------11-11-11-----|
E|----------------------------------------------|
   .. ..   . . . .     .. ..   . .    .. ..

e|-------------------------------------------------------------------|
B|-------------------------------------------------------------------|
G|----------------------------9--------------------------------------|
D|-10-10-10-10-10-10-10-10-10---10-10-10-10-11-11-11-8-8-8-8h10~--5--|
A|----------------------------------------------------------------5--|
E|----------------------------------------------------------------3--|
   .. .. .. ..    .. .. .. ..   .. .. .. ..    .. ..   . .

CHORUS AGAIN

    SOLO
e|-----------------------------------------------------------A.h.-A.h.-------|
B|--------------------------------------------A.h.-------------6--5----------|
G|----0-0-5-4-0-0-5-7-0-0-7-8-0-0-8-10-0-0-10-12/\/\--------5--------------5-|
D|-------------------------------------------------------7--------------7----|
A|---------------------------------------------------------------------------|
E|---------------------------------------------------------------------------|
      . . . . . . . . . . . . . . . .. . . ..

e|-----------------------------------------------------A.h.-----18-18p16p14--|
B|-6--5----------------------------------------12-13-15-15fb17r-------------1|
G|-----------/12-14-14p12p10----10---------/14-------------------------------|
D|---------------------------14----14-12~------------------------------------|
A|---------------------------------------------------------------------------|
E|---------------------------------------------------------------------------|

e|--14-----------------------------------------------------------------------|
B|8----18-16~---------13------/18~-19~-18~-16\-------------------------------|
G|--------------12-14----12~--------------------10p9p7-10p9p7-10p9-12p10p9-12|
D|---------------------------------------------------------------------------|
A|---------------------------------------------------------------------------|
E|---------------------------------------------------------------------------|

e|-------------------------------------------------------------------------13|
B|-------------13-13p11p10------------------------------------10-------------|
G|p10p9-12p10-------------12~-9-10p9p7-10p9p7-10p9-/12~-10-12----12-10-------|
D|---------------------------------------------------------------------11~---|
A|---------------------------------------------------------------------------|
E|---------------------------------------------------------------------------|

e|p12p10--13p12p10--13p12----------------------------------------------------|
B|------------------------11p10p8--11p10p8--11p10----13-13-------------------|
G|---------------------------------------------------------14-12----9--10p9p7|
D|---------------------------------------------------------------------------|
A|---------------------------------------------------------------------------|
E|---------------------------------------------------------------------------|

e|---------------------------------------------------------------------------|
B|-------------------------------------------------------------15fbr~-15fbr~-|
G|-10p9p7-10p9--12p10p9-12p10p9-12p10--14p12p10------------------------------|
D|-----------------------------------------------14p12p10--------------------|
A|--------------------------------------------------------12~----------------|
E|---------------------------------------------------------------------------|

e|---------------------------16-`16-`16-16~/\------T21p18p16h18T21p18p16h18-2|
B|15-13-15-13h15p13------15--------------------------------------------------|
G|------------------14-------------------------------------------------------|
D|---------------------------------------------------------------------------|
A|---------------------------------------------------------------------------|
E|---------------------------------------------------------------------------|

e|1Fbr---19p17---------------------------------------------------------------|
B|------------19p17h19p17--------------13-15FBR-13-15~--13-12-13-12h13p12---1|
G|------------------------19-17~\-/14-------------------------------------14-|
D|---------------------------------------------------------------------------|
A|---------------------------------------------------------------------------|
E|---------------------------------------------------------------------------|

e|------12-12-12p10----12-12-12p10-------------------------------------------|
B|2-----13-13-13p12-13-13-13-13p12-13-12-13-13/15\13-12-13-12h13p12-13-12----|
G|------------------14-------------14-12-14-------------------------------14-|
D|--14~----------------------------------------------------------------------|
A|---------------------------------------------------------------------------|
E|---------------------------------------------------------------------------|

e|----------12-12-12p10----12-12-12p10------------------------------16-15-/\/|
B|13--------13-13-13p12-13-13-13-13p12-13-12-13---------12-13-12-13-9--8--/\/|
G|----------------------14-------------14-12-14---12-14-4--5--4--5-----------|
D|---14-------------------------------------------5--7-----------------------|
A|---------------------------------------------------------------------------|
E|---------------------------------------------------------------------------|

e|\/\/-|
B|\/\/-|
G|-----|
D|-----|
A|-----|
E|-----|


VERSE 5                VERSE 6

e|------------(15)--|---------------------------------------------------------|
B|------------------|---------------------------------------------------------|
G|------------------|---------------------------------------------------------|
D|------------------|------------------------------------------------------8--|
A|------------------|-------------10-------------------8-------------------6-6|
E|------------------|-------------8--8-8-8-8-8-8-8-8-8-6-6-6-6-6-6-6-6-6-6----|
p.m.                                 . . . . . . . . .   . . . . . . . . .   .

e|---------------------------|
B|---------------------------|
G|---------------------------|
D|---------------------------|
A|-6-6-6-6-6-6-6-6-6-6-6-6-6-|
E|---------------------------|
p.m. . . . . . . . . . . . .


VERSE 7

e|---------------------------------------------------------------------------|
B|-----13-13-13p12-----13-13-13p12----------13FBR-12-13-12h13p12-13-12----13-|
G|------------------14-------------14-12-14----------------------------------|
D|---------------------------------------------------------------------14----|
A|---------------------------------------------------------------------------|
E|---------------------------------------------------------------------------|

e|---------------------------------------------------------------------------|
B|13-13p12-----13-13-13p12-----------------------------------------13-13-13p1|
G|---------14--------------14-12-14--12-10-9--10-9h10p9--9--10-9~------------|
D|---------------------------------------------------------------------------|
A|---------------------------------------------------------------------------|
E|---------------------------------------------------------------------------|

e|---------------------------------------------------------------------------|
B|2----13-13-13p12----------13FBR--12-13-12h13p12-13-12-----13-13-13p12-----1|
G|--14-------------14-12-14---------------------------------------------14~--|
D|------------------------------------------------------14~------------------|
A|---------------------------------------------------------------------------|
E|---------------------------------------------------------------------------|

e|-------------13-13-13-13-15-15-17-17-15-15-13-13-15-15Fb(17)~--|
B|5FB-15FBR-13~--------------------------------------------------|
G|---------------------------------------------------------------|
D|---------------------------------------------------------------|
A|---------------------------------------------------------------|
E|---------------------------------------------------------------|

e|----------------------------------------------------|
B|----------------------------------------------------|
G|----------------------------------------------------|
D|----------------------------------------------------|
A|--------7--5--3-X-X7--5--3-X-X7--5--3-X-X7-7-5-7-7--|
E|--------5--3--1-X-X5--3--1-X-X5--3--1-X-X5-5-3-3-5\-|


INTRO :

Easy, isn`t it?
Just figure out the scramblin` rythm durin` the       
percussive rakes (the x-es)                           

VERSE 1 :

No problem, just listen to the song for timing!

LEAD 1 :

Easy too!

VERSE 2 :
Just play the main riff the FIRST time with the FIRST ending and
the SECOND time with the SECOND ending! GOT IT?

CHORUS :

Yeah, it is realy difficult to stroke these powerchords...

VESRE 3 :

Listen to the song, don`t know if it is correct, but it should be close!

VERSE 4 :

Practice this part carefully, I am sure it is played so high on the neck,
coz I have seen this song live, and watched at Andre`s guitar!

SOLO :

Hmm... what should I say???
I think it is an easy but a good solo, mail me, if I had writen some shit
down there!!!!
At the end, I had tabbed down Marcus part, coz maybe some of you would
like to have it !

VERSE 5 :

It`s like Verse 2, but it starts 2 chords later!

VESRE 6 :

no comment!

VERSE 7 :

A real good end, isn`t it?


SONG - STRUCTURE


INTRO

VERSE 1
Close to insanity
beond the realms I've been
at darkest places
I'm crying
"The dragon flies"

LEAD 1

VESRE 2
Something savage
is yearning for me
I'm waiting afraid for the night
what will be                                    -ending 1
I've lost myself
a few days ago
it's touching my soul
and a vision of past dreams comes true          -ending 2
 
CHORUS
Welcome to dying
I don't let it out
Welcome to dying
Look to the mirror it shows what I am
Welcome to dying
This town must burn now
Welcome to dying
Can't You see the dragon's seed bears in me

VESRE 3
The one who's been before
many times I terrorized this town
many times and here I start again
now I'm stronger and so cold
cold as ice
returning is my destiny
now I feel it's growing up in me
now I feel it's burning deep in me

VESRE 4
I'm not what I was before
could I stop this dream
I'm a stranger to myself
and I cannot control
 
CHORUS
Welcome to dying
I don't let it out
Welcome to dying
Look to the mirror it shows what I am
Welcome to dying
Can't you see the dragon's seed bears in me
Welcome to dying
The dragon's breath I don't let it out

SOLO
 
VESRE 5
I'm a savage
it's too late for me
the other side's taking controll and I know     - ending 1
there's one way I can walk alone
or the dragon will fly
and a growing fear's all that I feel            - ending 2
 
Ref. (1st)
 
VERSE 6
Welcome to dying (6x)
Can't you see the dragon's seed bears in me

VERSE 7
Spread my wings and fly away
I spread my wings and fly away
I spread my wings and fly away


solo

E|---------------------------------------------------
B|-----------------------------3-5-----5-7-----------
G|-----3-4-----4-6-----6-7------------------------8-9
D|-4-4-----4-4-----4-4-----4-4-----4-4--------6-9----
A|---------------------------------------------------
E|---------------------------------------------------

E|-----------------------------------------------9-11
B|-------------------7--9p7p5-----------9--11-12-----
G|-(9)-8-----8-9-8------------8-9p8p6----------------
D|-------6-9-----------------------------------------
A|---------------------------------------------------
E|---------------------------------------------------

E|--16--14-12-11-12-11-9--------------11-12--11--9---
B|------------------------9-11-12--------------------
G|--------------------------------11-----------------
D|---------------------------------------------------
A|---------------------------------------------------
E|---------------------------------------------------

E|---------------------------------------------------
B|------------------------------------12--10-9-------
G|-9p8p6-9p8p6-9p8-11p9p8-11p9p8-11p9----------11----
D|---------------------------------------------------
A|---------------------------------------------------
E|---------------------------------------------------

E|---------------------------------------------I-----
B|---------------------------------------------I-----
G|-6--9p8p6-9p8p6-9p8-11----9-11-13--11-9------I-----
D|----------------------------------------10~~~I-(10)
A|---------------------------------------------I-----
E|---------------------------------------------I-----

E|-12p11p9-12p11p9-12p11-----------------------------
B|-----------------------12p10p9-12p10p9-12p10-12--10
G|---------------------------------------------------
D|---------------------------------------------------
A|---------------------------------------------------
E|---------------------------------------------------

E|---------------------------------------------------
B|-(10)-9--------------------------------------------
G|--------11----6--9p8p6-9p8p6-9p8-9h11h13p11p9------
D|----------------------------------------------13p11
A|---------------------------------------------------
E|---------------------------------------------------

E|-----------------------------11~~~~~~~~------------
B|---------------------------------------14-12-14-12-
G|---------------------------------------------------
D|-(13p11)p9-----------------------------------------
A|-----------13p11-11--------------------------------
E|---------------------------------------------------

                               (                    
E|-----------------16-16-16-16---19-18-16-18-19-18-16
B|-(12)----------------------------------------------
G|------13~~~~~~13-----------------------------------
D|---------------------------------------------------
A|---------------------------------------------------
E|---------------------------------------------------

            )       (              )
E|-(16)-18-21--19-18--12-14-16-14-12-----------------
B|-----------------------------------16-14--12-------
G|------------------------------------------------13-
D|---------------------------------------------------
A|---------------------------------------------------
E|---------------------------------------------------

E|---------------------------------------------------
B|------12-14b16--16r14-12-14--12-11-12--11----------
G|-(13)----------------------------------------11----
D|------------------------------------------13----9--
A|---------------------------------------------------
E|---------------------------------------------------
Página 1 / 1

Letras e título
Acordes e artista

resetar configurações
OK