Cifra Club

Aprenda

Always

Blink-182

Cifra: Versão 2 (violão e guitarra)
Tom: F#
Intro: (Palm muted, strumming not shown) 
Começa tocando meio abafadinho
e|--------------------------- 
B|--------------------------- 
G|--4----------------------- 
D|--4-x8-4---x8---6------2---- 
A|--2----4--------6-x8---2-x8-- 
E|-------2--------4------0---- 

verse (abafado como na intro)
e|--------------------------- 
B|--------------------------- 
G|--4------6----------------- 
D|--4-x8---6-x8---6--------- 
A|--2------4------6-x14----- 
E|----------------4---------- 

I've been here before a few times
And I'm quite aware we're dying
And your hands they shake with goodbyes
And I'll take you back if you'd have me

Pre-Chorus / Post-Chorus 
e|---------------------------------------- 
B|----------4-------4------------4------4- 
G|-----4-------4------------4------4------ 
D|---------------------------------------- 
A|-2-2---2-------2------4-4---4-------4--- 
E|---------------------------------------- 

So here I am I'm trying
So here I am are you ready


Chorus 
e|----------------------------------------- 
B|--------4--------------5----------------- 
G|-4------3--8x----------4--8x-------------
D|-4-x8---1------6-------2----------------- 
A|-2-------------6--8x--------------------- 
E|---------------4-------------------------

Come on let me hold you touch you feel you
Always
Kiss you taste you all night
Always

(Pre-chorus / Post-chorus)


2nd Verse (Tom uses an some effect here) 
e|------------------------------- 
B|------------------------------- 
G|------------------------------- 
D|------------------------------- 
A|------------------------------- 
E|-7--7--4--6--6--2--4--4--2--4-- 

And I'll miss your laugh your smile
I'll admit I'm wrong if you'd tell me
I'm so sick of fights I hate them
Let's start this again for real


(Pre-Chorus / Post-Chorus)

So here I am I'm trying
So here I am are you ready
So here I am I'm trying
So here I am are you ready


(Chorus)
e|----------------------------------------- 
B|--------4--------------5----------------- 
G|-4------3--8x----------4--8x-------------
D|-4-x8---1------6-------2----------------- 
A|-2-------------6--8x--------------------- 
E|---------------4-------------------------

Come on let me hold you touch you feel you
Always
Kiss you taste you all night
Always
(Come on let me) hold you touch you feel you
Always
Kiss you taste you all night
Always

Interlude/Bridge 
1st Guitar - repeat this over and over 
e|------------------------------------------------- 
B|-4-----4-----4-----4---5--4-----4-----4-----4--5- 
G|----4-----4-----4------------4-----4-----4------- 
D|------------------------------------------------- 
A|------------------------------------------------- 
E|------------------------------------------------- 

e|------------------------------------------------- 
B|-4-----4-----4-----4--5--4----4--5--4----2--4---- 
G|----4-----4-----4-----------4---------4---------- 
D|------------------------------------------------- 
A|------------------------------------------------- 
E|------------------------------------------------- 

2nd Guitar 
e|--------------------------------------- 
B|--------------------------------------- 
G|-4-------6-------4-------8------4------ 
D|-x-x8----x-x8----x-x8----x-x4---x-x4--- 
A|-2-------4-------2-------6------2------ 
E|--------------------------------------- 

depois da interlude a guitarra 2 toca isso
e|--------------------------------- 
B|---------------------------------
G|--8---6---4----4-/-6---8---6---4- 
D|--x---x---x----x---x---x---x---x- 
A|--6---4---2----2-/-4---6---4---2- 
E|--------------------------------- 

(essa parte eh soh a batera)
I've been here before a few times
And I'm quite aware we're dying


(Refrao)
e|----------------------------------------- 
B|--------4--------------5----------------- 
G|-4------3--8x----------4--8x-------------
D|-4-x8---1------6-------2----------------- 
A|-2-------------6--8x--------------------- 
E|---------------4-------------------------

Come on let me hold you touch you feel you
Always
Kiss you taste you all night
Always
(Come on let me) hold you touch you feel you
Always
Kiss you taste you all night
Always


Interlude/Bridge 
1st Guitar - repeat this over and over 4x
e|------------------------------------------------- 
B|-4-----4-----4-----4---5--4-----4-----4-----4--5- 
G|----4-----4-----4------------4-----4-----4------- 
D|------------------------------------------------- 
A|------------------------------------------------- 
E|------------------------------------------------- 

e|------------------------------------------------- 
B|-4-----4-----4-----4--5--4----4--5--4----2--4---- 
G|----4-----4-----4-----------4---------4---------- 
D|------------------------------------------------- 
A|------------------------------------------------- 
E|------------------------------------------------- 
......................always...........


esse pekeno riff esta adaptado pra guitarra e eh feito pela guitarra 2 
junto com a 3º e 4º repetições da interlude 

E|--11-9----11-9----11-9-----12-11---------|2  E|------------|
B|-------12------12------12--------12-14---|v  B|------------|
G|-----------------------------------------|e  G|-----4------|
D|-----------------------------------------|z  D|-----x------|
A|-----------------------------------------|e  A|-----2------|
E|-----------------------------------------|s  E|------------|
Composição de Mark Hoppus / Tom DeLonge / Travis Barker
Colaboração e revisão:
  • paulo pereira
88.048 exibições
    • ½ Tom
    • A
    • Bb
    • B
    • C
    • Db
    • D
    • Eb
    • E
    • F
    • F#
    • G
    • Ab
  • Adicionar à lista

    0 comentários

    Mostrar mais comentários

    Conseguiu tocar?

    0 Tocaram 0 Ainda não

    Grave um vídeo tocando Always e mande pra gente!

    00:00 / 00:00
    outros vídeos desta música
    repetir qualidade Automático
    Outros vídeos desta música
    00:00 / 00:00
    Automático

    Cifra Club Pro

    Aproveite o Cifra Club com benefícios exclusivos e sem anúncios
    7 dias grátis
    Cifra Club Pro
    Aproveite o Cifra Club com benefícios exclusivos e sem anúncios
    7 dias grátis
    OK