Bored To Death

blink-182

Composição: Mark Hoppus / Matt Skiba / Travis Barker
Tom: C
Intro = Riff 01

E|------------------------------------------------------|
B|------------------------------------------------------|
G|------------------------------------------------------|
D|-----2-----2------2-----2-------2-----0-----------0---|
A|-0-0---0-0----3-3---3-3---------------------3---------|
E|----------------------------1-1---1-1---1-1---1-1-----|

[Verso 1] = Riff 01

There's an echo pulling out the meaning
Rescuing a nightmare from a dream
The voices in my head are always screaming
That none of this means anything to me

[Pré-Refrão] = Riff 02
E|------------------------------------------------------|
B|------------------------------------------------------|
G|------------------------------------------------------|
D|-----2-----2-----2-----2------5-----3-----2-----2-----|
A|-0-0---0-0---0-0---0-0----3-3---3-3---3-3---3-3-------|
E|------------------------------------------------------|

And it's a long way back from seventeen
The whispers turn into a scream
And I'm not coming home


[Refrão]

 C5
    Save your breathe, I'm nearly
 G5                           A5
    Bored to death and fading fast
 F5
    Life is too short to last long
 C5
    Back on earth I'm broken
 G5                          A5
    Lost and cold and fading fast
 F5
    Life is too short to last long


[Verso 2] = Riff 01

There's a stranger staring at the ceiling
Rescuing a tiger from a tree
The pictures in her head are always dreaming
Each of them means everything to me


[Pré-Refrão] = Riff 02

And it's a long way back from seventeen
The whispers turn into a scream
And I'm not coming home


[Refrão]

 C5
    Save your breathe, I'm nearly
 G5                           A5
    Bored to death and fading fast
 F5
    Life is too short to last long
 C5
    Back on earth I'm broken
 G5                          A5
    Lost and cold and fading fast
 F5
    Life is too short to last long


[Ponte] = Riff 03 (Palm-mute) ( ouçam junto com a música para entender o tempo! )

E|-------------------------------------------------------------------------|
B|-------------------------------------------------------------------------|
G|-------------------------------------------------------------------------|
D|------5-----5-5-------------------------------------------------5--------|
A|--3-3-3-3-3-2-3--3-3-3-3-3-3-3---------3-------------------5----2--------|
E|-------------------------------0--1-1--1--1-1-0--3-3-3-3-3-3-------------|

I think I met her at the minute that the rhythm was set down
I said I'm sorry I'm a bit of a let down
But all my friends are daring me to come over
So I come over and over and over

So let me buy you a drink
And we'll pretend that you think
That I'm the man of your dreams
Come to life in a dive bar
And we'll go over and over and over
And we'll go over and over and over
And we'll go over and over and over
And we'll go over and over and over


[Refrão]

 C5
    Save your breathe, I'm nearly
 G5                           A5
    Bored to death and fading fast
 F5
    Life is too short to last long
 C5
    Back on earth I'm broken
 G5                          A5
    Lost and cold and fading fast
 F5
    Life is too short to last long


[Final] = Riff 04 (Palm-Mute)

E|-------------------------------------------------------------------------|
B|-------------------------------------------------------------------------|
G|-------------------------------------------------------------------------|
D|--5-5-5-5-5-5-5-5-5-5-5-5-5----------------------------------------------|       2X
A|--3-3-3-3-3-3-3-3-3-3-3-3-3------3-3-3-3-3-3----5-5-5-5-5-5-5------------|
E|---------------------------------1-1-1-1-1-1----3-3-3-3-3-3-3------------|

E|-------------------------------------------------------------------------|
B|-------------------------------------------------------------------------|
G|--9-9-9-9-9-9--7-9-9-9-9-9-9-----4-5-5-5-5-5-5-5---4-7-7-7-7-7-7---5-----|
D|--x-x-x-x-x-x--x-x-x-x-x-x-x-----x-x-x-x-x-x-x-x---x-x-x-x-x-x-x---x-----|       2X
A|--7-7-7-7-7-7--5-7-7-7-7-7-7-----2-3-3-3-3-3-3-3---2-5-5-5-5-5-5---3-----|
E|-------------------------------------------------------------------------|

  Acorde Final : C
Página 1 / 1

Letras e título
Acordes e artista

resetar configurações
OK