Cifra Club

Don't Tell Me That It's Over

blink-182

Cifra: Principal (violão e guitarra)
Tom: C
Acordes:


    Cm    Gm     Fm
e|---------------------|
B|---------------------|
G|---5-----------------|
D|---5------5------3---|
A|---3------5------3---|
E|----------3------1---|


Riff 1:


e|--------------------------|
B|--------------------------|
G|---5555555555555555555----|
D|---xxxxxxxxxxxxxxxxxxx----|
A|---3333333333333333333----|
E|--------------------------|


Riff 2:


e|-------------------------------------------------------|
B|-------------------------------------------------------|
G|-------------------------------------------------------|
D|-----2-0-2---2---2-0-2---2---2-0-2---2---2-0-2---2-----|
A|---3-------3---3-------3---3-------3---3-------3---3---|
E|-------------------------------------------------------|


Riff 3: (abafado)


e|--------------------------------------|
B|--------------------------------------|
G|---55555-55-555555-------22-----------|
D|---55555-55-555555-55555-22-3333333---|
A|---33333-33-333333-55555-00-3333333---|
E|-------------------33333----1111111---|



C (Let ring)
I hear the phone it rings so violently
C C
Can't leave my room,can't breathe since she left me
C (Let ring)
I will admit I hate those thing I said
C C
Girls will always cry, guys will never admit they did


(Riff 1)
Hold on,hold on,hold on,hold on


C
Dont tell me that it`s over
Gm              Fm
I'm not used to this temptation
C
And when you come back running
Gm                  Fm
there is no use for explanation
C
I think these things are too hopeful
Gm           Fm
even with my expert knowledge
C
Most girls most do mean trouble
Gm               Fm
because they are rarely honest


Riff 2  1x


(Abafado)
C
What`s with the jokes
           Gm          Fm
all the routines they play
C
Screw with my head
                   Gm         Fm
never cave til they get their way
C
Guys like to run
               Gm       Fm
chicks like to yell you see
C
Guys hate to fight
               Gm    Fm
girls think its therapy


(Riff 1)
Hold on,hold on,hold on,hold on


C
Don't tell me that it`s over
Gm              Fm
I'm not used to this temptation
C
And when you come back running
Gm                  Fm
there is no use for explanation
C
I think these things are too hopeful
Gm           Fm
even with my expert knowledge
C
Most girls most do mean trouble
Gm               Fm
because they are rarely honest


Riff 2  1x


Riff 3  2x


(Riff 3  2x)
Hold on,hold on,hold on,hold on


C
Don't tell me that it`s over
Gm              Fm
I'm not used to this temptation
C
And when you come back running
Gm                  Fm
there is no use for explanation
C
I think these things are too hopeful
Gm           Fm
even with my expert knowledge
C
Most girls most do mean trouble
Gm               Fm
because they are rarely honest


(Hold on,hold on,hold on,hold on)--> Back vocal
C
Don't tell me that it`s over
Gm              Fm
I'm not used to this temptation
C
And when you come back running
Gm                  Fm
there is no use for explanation
C
I think these things are too hopeful
Gm           Fm
even with my expert knowledge
C
Most girls most do mean trouble
Gm               Fm
because they are rarely honest


C (Let ring)
Don't tell me that it`s over
I'm not used to this temptation...
exibições 12.226
Acordes para:
    Composição: blink-182

    0 comentários

    mostrar mais comentários

    Conseguiu tocar?

    0 tocaram 0 ainda não

    Grave um vídeo tocando Don't Tell Me That It's Over e mande pra gente!

    00:00 / 00:00
    outros vídeos desta música
    repetir qualidade Automático
    Outros vídeos desta música
    00:00 / 00:00
    Automático
    OK