I Miss You

blink-182

Composição: blink-182
Tom: B
                                   I Miss You ( Sinto Sua Falta ).

Obs: O interessante desta música é perceber que o Contra-Baixo passa por algumas notas, mas o vilão não precisa acopamnhar para manter o mesmo tom. 

Introdução e até o refrão: ( Violão 1 - solo )

e|--------------------------
b|--------------------------
g|---4 /8---8 8 8-----------
d|---x--x---x x x-----------
a|---2 /6---6 6 6-----------
e|---0 /0---0 0 0-----------

Intro: ( Violão 2 - Base )  ( B )
             
                B

Hello dear, the angel from my nightmare
The shadow in the background of the morgue
The unsuspecting victim of darkness in the valley
We can live like Jack and Sally if we want
Where you can always find me
We'll have halloween on Christmas
And in the night we'll wish this never ends
We'll wish this never ends...

( Violão 2 - Base )

  B   B   E   B
              I miss you, miss you

  B   B   E   B
              I miss you, miss you

( Violão 1 - solo )-  refrão.

e|--------------------------------------------------
b|--------------------------------------------------
g|--4-4-444----6-6-666---9-9-999----4-4-444---------
d|--2-2-222----4-4-444---7-7-777----2-2-222---------  ( 2x )
a|--x-x-xxx----x-x-xxx---x-x-xxx----x-x-xxx---------
e|--0-0-000----0-0-000---0-0-000----0-0-000---------

I miss you, miss you
I miss you, miss you

( Violão 1 - solo ) -  Manter a mesma sequência da intro.

( Violão 2 - Base ) 

           B

Where are you and I'm so sorry
I cannot sleep I cannot dream tonight
I need somebody and always
This sick strange darkness
Comes creeping on so haunting every time
And as I stared I counted
Webs from all the spiders
Catching things and eating their insides
Like indecision to call you
And hear your voice of treason
And will you come home and stop this pain tonight
Stop this pain tonight

( Violão 2 - Base )       ( Violão 1 - solo )-  refrão.

      B       B       E        B
 
Don't waste your time on me you're already
The voice inside my head (I miss you, miss you)
Don't waste your time on me you're already
The voice inside my head (I miss you, miss you)

Solinho:

( Violão 1 - solo ) -  Manter a mesma sequência da intro.

( Violão 2 - Base ) - Vai inverter e solar.

                     ( reforçar bem o vibrator ) ( ~~ )
e|----------------------------------------------------------------------------
b|---9 ~~ -- 11 ~~ --12 ~~ --- 11 ~~ --9 ~~-- 11 ~~--- 12 ~~--11 ~~-----------
g|----------------------------------------------------------------------------
d|----------------------------------------------------------------------------
a|----------------------------------------------------------------------------
e|----------------------------------------------------------------------------

Segue a música:

( Violão 2 - Base )       ( Violão 1 - solo )-  refrão.

      B       B       E        B
 
Don't waste your time on me you're already
The voice inside my head (I miss you, miss you)
Don't waste your time on me you're already
The voice inside my head (I miss you, miss you)

Último Solinho:

( Violão 2 - Base )

 B       B       E        B

I miss you, miss you
I miss you, miss you

( Violão 1 - solo )-  

e|---------------------------------------------------------------
b|---------------------------------------------------------------
g|---11--11--11--11--11--11--11--11--11--11--11--11--11--11--11--
d|---------------------------------------------------------------
a|---------------------------------------------------------------
e|---------------------------------------------------------------

e|----------------------------------------------------------------
b|----------------------------------------------------------------
g|---11-8---11-8---11-8---11-8---11-8---11-8----11--9--8---4~~ ---  Até o fim.
d|----------------------------------------------------------------
a|----------------------------------------------------------------
e|----------------------------------------------------------------
Página 1 / 1

Letras e título
Acordes e artista

resetar configurações
OK