Cifra Club

I Miss You

blink-182

Tab de baixo: Principal
[Introdução]

Parte 1 ( 3x )
G|----------------------------------------------|
D|----------------------------------------------|
A|----------------------------------------------|
E|-0-7-7--0-6-6--0-4-4--0-6-6-------------------|

[Primeira parte]

Hello there...

Parte 1 de 2( 3x )
G|----------------------------------------------|
D|----------------------------------------------|
A|----------------------------------------------|
E|-0-7-7--0-6-6--0-4-4--0-6-6-------------------|

[Refrão]

Parte 1 de 2
G|----------------------------------------------|
D|----------------------------------------------|
A|-----4-4-4-4--6-6-6--9-9-9-9--7-7-7--7-7-7-7--|
E|-7-7------------------------------------------|

G|----------------------------------------------|
D|----------------------------------------------|
A|-7-7-7--7-7-7-7-------------------------------|
E|----------------------------------------------|

Parte 2 de 2
G|----------------------------------------------|
D|----------------------------------------------|
A|-----4-4-4-4--6-6-6--9-9-9-9--7-7-7--7-7-7-7--|
E|-7-7------------------------------------------|

G|----------------------------------------------|
D|----------------------------------------------|
A|-7-7-7--7-7-7-7-------------------------------|
E|-----------------7----------------------------|

[Segunda parte]

Where are you and I'm so sorry …

Parte 1 de 2( 4x )
G|----------------------------------------------|
D|----------------------------------------------|
A|----------------------------------------------|
E|-0-7-7--0-6-6--0-4-4--0-6-6-------------------|

[Refrão 2]

Don't waste your time on me, you're...

Parte 1 de 2
G|----------------------------------------------|
D|----------------------------------------------|
A|-----4-4-4-4--6-6-6--9-9-9-9--7-7-7--7-7-7-7--|
E|-7-7------------------------------------------|



G|----------------------------------------------|
D|----------------------------------------------|
A|-7-7-7--7-7-7-7-------------------------------|
E|----------------------------------------------|

Parte 2 de 2
G|----------------------------------------------|
D|----------------------------------------------|
A|-----4-4-4-4--6-6-6--9-9-9-9--7-7-7--7-7-7-7--|
E|-7-7------------------------------------------|

G|----------------------------------------------|
D|----------------------------------------------|
A|-7-7-7--7-7-7-7-------------------------------|
E|-----------------7----------------------------|

[Terceira parte instrumental]

Parte 1
G|----------------------------------------------|
D|----------------------------------------------|
A|----------------------------------------------|
E|-0-4-4--0-6-6--0-7-7--0-6-6--0-4-4--0-6-6-----|

G|----------------------------------------------|
D|----------------------------------------------|
A|----------------------------------------------|
E|-0-7-7--0-6-6---------------------------------|

[Refrão 3]

Don't waste your time on me, you're...

Parte 1 de 2 ( 4x )
G|----------------------------------------------|
D|----------------------------------------------|
A|-----4-4-4-4--6-6-6--9-9-9-9--7-7-7--7-7-7-7--|
E|-7-7------------------------------------------|

G|----------------------------------------------|
D|----------------------------------------------|
A|-7-7-7--7-7-7-7-------------------------------|
E|----------------------------------------------|

Parte 2 de 2 ( 4x + fade out )
G|----------------------------------------------|
D|----------------------------------------------|
A|-----4-4-4-4--6-6-6--9-9-9-9--7-7-7--7-7-7-7--|
E|-7-7------------------------------------------|

G|----------------------------------------------|
D|----------------------------------------------|
A|-7-7-7--7-7-7-7-------------------------------|
E|----------------------------------------------|
exibições 72.205
Composição: blink-182 Colaboração e revisão:
  • Reginaldo Costa
  • Guilherme Torquato
  • Felipe Machado

0 comentários

mostrar mais comentários

Conseguiu tocar?

18 tocaram 0 ainda não

Grave um vídeo tocando I Miss You e mande pra gente!

00:00 / 00:00
outros vídeos desta música
repetir qualidade Automático
Outros vídeos desta música
00:00 / 00:00
Automático
Capítulos
  • Tocando a Música
  • Apresentação / Equipamentos
  • TAB - Introdução
  • TAB - Primeira Parte
  • TAB - Refrão
  • TAB - Terceira Parte
  • TAB - Refrão 3
  • Encerramento
OK