Cifra Club

I Miss You

Blink-182

Tab de baixo: Principal
[Intro]

G|----------------------------------------------|
D|----------------------------------------------|
A|----------------------------------------------|
E|-0-7-7--0-6-6--0-4-4--0-6-6-------------------|

G|----------------------------------------------|
D|----------------------------------------------|
A|----------------------------------------------|
E|-0-7-7--0-6-6--0-4-4--0-6-6-------------------|

G|----------------------------------------------|
D|----------------------------------------------|
A|----------------------------------------------|
E|-0-7-7--0-6-6--0-4-4--0-6-6-------------------|

[Primeira Parte]

Hello there...
 
  Parte 1 De 2

G|----------------------------------------------|
D|----------------------------------------------|
A|----------------------------------------------|
E|-0-7-7--0-6-6--0-4-4--0-6-6-------------------|

G|----------------------------------------------|
D|----------------------------------------------|
A|----------------------------------------------|
E|-0-7-7--0-6-6--0-4-4--0-6-6-------------------|

G|----------------------------------------------|
D|----------------------------------------------|
A|----------------------------------------------|
E|-0-7-7--0-6-6--0-4-4--0-6-6-------------------|

[Refrão]

  Parte 1 De 2

G|----------------------------------------------|
D|----------------------------------------------|
A|-----4-4-4-4--6-6-6--9-9-9-9--7-7-7--7-7-7-7--|
E|-7-7------------------------------------------|

G|----------------------------------------------|
D|----------------------------------------------|
A|-7-7-7--7-7-7-7-------------------------------|
E|----------------------------------------------|

  Parte 2 De 2

G|----------------------------------------------|
D|----------------------------------------------|
A|-----4-4-4-4--6-6-6--9-9-9-9--7-7-7--7-7-7-7--|
E|-7-7------------------------------------------|

G|----------------------------------------------|
D|----------------------------------------------|
A|-7-7-7--7-7-7-7-------------------------------|
E|-----------------7----------------------------|

[Segunda Parte]

Where are you and I'm so sorry …

  Parte 1 De 2

G|----------------------------------------------|
D|----------------------------------------------|
A|----------------------------------------------|
E|-0-7-7--0-6-6--0-4-4--0-6-6-------------------|

G|----------------------------------------------|
D|----------------------------------------------|
A|----------------------------------------------|
E|-0-7-7--0-6-6--0-4-4--0-6-6-------------------|

G|----------------------------------------------|
D|----------------------------------------------|
A|----------------------------------------------|
E|-0-7-7--0-6-6--0-4-4--0-6-6-------------------|

G|----------------------------------------------|
D|----------------------------------------------|
A|----------------------------------------------|
E|-0-7-7--0-6-6--0-4-4--0-6-6-------------------|

[Refrão 2]

Don't waste your time on me, you're...

  Parte 1 De 2

G|----------------------------------------------|
D|----------------------------------------------|
A|-----4-4-4-4--6-6-6--9-9-9-9--7-7-7--7-7-7-7--|
E|-7-7------------------------------------------|

G|----------------------------------------------|
D|----------------------------------------------|
A|-7-7-7--7-7-7-7-------------------------------|
E|----------------------------------------------|

  Parte 2 De 2

G|----------------------------------------------|
D|----------------------------------------------|
A|-----4-4-4-4--6-6-6--9-9-9-9--7-7-7--7-7-7-7--|
E|-7-7------------------------------------------|

G|----------------------------------------------|
D|----------------------------------------------|
A|-7-7-7--7-7-7-7-------------------------------|
E|-----------------7----------------------------|

[Terceira Parte]

G|----------------------------------------------|
D|----------------------------------------------|
A|----------------------------------------------|
E|-0-4-4--0-6-6--0-7-7--0-6-6--0-4-4--0-6-6-----|

G|----------------------------------------------|
D|----------------------------------------------|
A|----------------------------------------------|
E|-0-7-7--0-6-6---------------------------------|

[Refrão 3]

Don't waste your time on me, you're...

  Parte 1 De 2 

G|----------------------------------------------|
D|----------------------------------------------|
A|-----4-4-4-4--6-6-6--9-9-9-9--7-7-7--7-7-7-7--|
E|-7-7------------------------------------------|

G|----------------------------------------------|
D|----------------------------------------------|
A|-7-7-7--7-7-7-7-------------------------------|
E|----------------------------------------------|

G|----------------------------------------------|
D|----------------------------------------------|
A|-----4-4-4-4--6-6-6--9-9-9-9--7-7-7--7-7-7-7--|
E|-7-7------------------------------------------|

G|----------------------------------------------|
D|----------------------------------------------|
A|-7-7-7--7-7-7-7-------------------------------|
E|----------------------------------------------|

G|----------------------------------------------|
D|----------------------------------------------|
A|-----4-4-4-4--6-6-6--9-9-9-9--7-7-7--7-7-7-7--|
E|-7-7------------------------------------------|

G|----------------------------------------------|
D|----------------------------------------------|
A|-7-7-7--7-7-7-7-------------------------------|
E|----------------------------------------------|

  Parte 2 de 2

G|----------------------------------------------|
D|----------------------------------------------|
A|-----4-4-4-4--6-6-6--9-9-9-9--7-7-7--7-7-7-7--|
E|-7-7------------------------------------------|

G|----------------------------------------------|
D|----------------------------------------------|
A|-7-7-7--7-7-7-7-------------------------------|
E|----------------------------------------------|

G|----------------------------------------------|
D|----------------------------------------------|
A|-----4-4-4-4--6-6-6--9-9-9-9--7-7-7--7-7-7-7--|
E|-7-7------------------------------------------|

G|----------------------------------------------|
D|----------------------------------------------|
A|-7-7-7--7-7-7-7-------------------------------|
E|----------------------------------------------|

G|----------------------------------------------|
D|----------------------------------------------|
A|-----4-4-4-4--6-6-6--9-9-9-9--7-7-7--7-7-7-7--|
E|-7-7------------------------------------------|

G|----------------------------------------------|
D|----------------------------------------------|
A|-7-7-7--7-7-7-7-------------------------------|
E|----------------------------------------------|

G|----------------------------------------------|
D|----------------------------------------------|
A|-----4-4-4-4--6-6-6--9-9-9-9--7-7-7--7-7-7-7--|
E|-7-7------------------------------------------|

G|----------------------------------------------|
D|----------------------------------------------|
A|-7-7-7--7-7-7-7-------------------------------|
E|----------------------------------------------|
Composição de Mark Hoppus / Tom DeLonge / Travis Barker
Colaboração e revisão:
74.310 exibições

0 comentários

Ver todos os comentários

Conseguiu tocar?

23 Tocaram 0 Ainda não

Grave um vídeo tocando I Miss You e nos envie!

00:00 / 00:00
Outros vídeos desta música
Repetir Qualidade Automático
Outros vídeos desta música
00:00 / 00:00
Automático
Capítulos
  • Tocando a Música
  • Apresentação / Equipamentos
  • TAB - Introdução
  • TAB - Primeira Parte
  • TAB - Refrão
  • TAB - Terceira Parte
  • TAB - Refrão 3
  • Encerramento

Cifra Club Pro

Aproveite o Cifra Club com benefícios exclusivos e sem anúncios
Cifra Club Pro
Aproveite o Cifra Club com benefícios exclusivos e sem anúncios
OK