I Miss You

blink-182

Composição: blink-182
Tom: B
Intro

E|--------| 
B|--------| 
G|-4/88-8-| 
D|-x/xx-x-| 
A|-2/66-6-| 12x 
E|--------| 

verso

E|--------|
B|--------| 
G|-4/88-8-| 
D|-x/xx-x-| 
A|-2/66-6-| 12x 
E|--------| 

refrão 
E|----------------------------------------------------------| 
B|----------------------------------------------------------| 
G|-4-4-44-6-6-6-66-8-8-8-88---------------------------------| 
D|-x-x-xx-x-x-x-xx-x-x-x-xx-4-4-4-66-6-8-88-8-9-99-9-9-99-9-| 
A|-2-2-22-4-4-4-44-6-6-6-66-x-x-x-xx-x-x-xx-x-x-xx-x-x-xx-x-| 2x
E|--------------------------2-2-2-44-4-6-66-6-7-77-7-7-77-7-| 

verso

E|--------| 
B|--------| 
G|-4/88-8-| 
D|-x/xx-x-| 
A|-2/66-6-| 12x 
E|--------| 

refrão
E|----------------------------------------------------------| 
B|----------------------------------------------------------| 
G|-4-4-44-6-6-6-66-8-8-8-88---------------------------------| 
D|-x-x-xx-x-x-x-xx-x-x-x-xx-4-4-4-66-6-8-88-8-9-99-9-9-99-9-| 
A|-2-2-22-4-4-4-44-6-6-6-66-x-x-x-xx-x-x-xx-x-x-xx-x-x-xx-x-| 2x
E|--------------------------2-2-2-44-4-6-66-6-7-77-7-7-77-7-|

Página 1 / 1

Letras e título
Acordes e artista

resetar configurações
OK