Cifra Club

I Miss You

blink-182

Cifra: Versão 9 (violão e guitarra)
Tom: B
No Live eles tocam com distorção leve,
mas gravado eh só na afinação normal 
e palheta fina.

Introdução
E|----------------|
B|----------------|
G|----------------|
D|-7-7/12-12-12-12|
A|-x-x/-x--x--x--x|
E|-5-5/-9--9--9--9|x3
                                                x3
pt.2
E|------------|
B|------------|
G|------------|
D|-7-7/12-12/7|
A|-x-x/-x--x/x|
E|-5-5/-9--9/5|x1

Verso
E|----------------|
B|----------------|
G|----------------|
D|-7-7/12-12-12-12|
A|-x-x/-x--x--x--x|
E|-5-5/-9--9--9--9|x3

pt.2
E|------------|
B|------------|
G|------------|
D|-7-7/12-12/7|
A|-x-x/-x--x/x|
E|-5-5/-9--9/5|x1

Refrão
E|-----------------------------------------------------------------|
B|-----------------------------------------------------------------|
G|------------------6-6-6-6--9-9-9-9--7-7-7-7--9-9-9-9--12-12-12-12|
D|7-7-7-7--9-9-9-9--x-x-x-x--x-x-x-x--x-x-x-x--x-x-x-x---x--x--x--x|
A|x-x-x-x--x-x-x-x--4-4-4-4--7-7-7-7--5-5-5-5--7-7-7-7---9--9--9--9|
E|5-5-5-5--7-7-7-7-------------------------------------------------|x2

Verso (2)
pt.2
E|----------------------------------|
B|----------------------------------|
G|----------------------------------|
D|7-7-7-7--6-6-6-6--4-4-4-4--6-6-6-6|
A|7-7-7-7--7-7-7-7--4-4-4-4--7-7-7-7|
E|5-5-5-5--4-4-4-4--2-2-2-2--4-4-4-4|x4

Refrão
E|-----------------------------------------------------------------|
B|-----------------------------------------------------------------|
G|------------------6-6-6-6--9-9-9-9--7-7-7-7--9-9-9-9--12-12-12-12|
D|7-7-7-7--9-9-9-9--x-x-x-x--x-x-x-x--x-x-x-x--x-x-x-x---x--x--x--x|
A|x-x-x-x--x-x-x-x--4-4-4-4--7-7-7-7--5-5-5-5--7-7-7-7---9--9--9--9|
E|5-5-5-5--7-7-7-7-------------------------------------------------|x2


Solo
E|--------------------------|      >       E|---------------------------|
B|--------------------------|      >       B|---------------------------|
G|-9~~~---9~~~---9~~~---9~~~|      >       G|-9~~~---9~~~---9~~~---11~~~|
D|7~~~-7/6~~~-6/7~~~-7/9~~~-|      >       D|7~~~-7/6~~~-6/7~~~-7/9~~~--|
A|--------------------------|      >       A|---------------------------|
E|--------------------------|      >       E|---------------------------|

Refrão
E|-----------------------------------------------------------------|
B|-----------------------------------------------------------------|
G|------------------6-6-6-6--9-9-9-9--7-7-7-7--9-9-9-9--12-12-12-12|
D|7-7-7-7--9-9-9-9--x-x-x-x--x-x-x-x--x-x-x-x--x-x-x-x---x--x--x--x|
A|x-x-x-x--x-x-x-x--4-4-4-4--7-7-7-7--5-5-5-5--7-7-7-7---9--9--9--9|
E|5-5-5-5--7-7-7-7-------------------------------------------------| - Até o final da música
exibições 18.935
Acordes para:
    Composição: blink-182 Colaboração e revisão:
    • Lucas Kawakami

    0 comentários

    mostrar mais comentários

    Conseguiu tocar?

    0 tocaram 0 ainda não

    Grave um vídeo tocando I Miss You e mande pra gente!

    00:00 / 00:00
    outros vídeos desta música
    repetir qualidade Automático
    Outros vídeos desta música
    00:00 / 00:00
    Automático
    Capítulos
    • Tocando a Música
    • Apresentação/Equipamentos
    • Ensinando Ritmo - Vassoura
    • Ensinando Ritmo - Caixa
    • Ensinando Ritmo - Baqueta Aro
    • Ensinando Ritmo - Bumbo
    • Ensinando Ritmo - Drag / Ghost Note
    • Ritmo Completo
    • Encerramento
    OK