Josie

blink-182

Composição: blink-182 / Mark Hoppus
Tom: B
[Intro] B5

E|-----------------------------|
B|-----------------------------|
G|-4~~~~--4~~~~--4~~~~--4~~~~--|
D|-4~~~~--4~~~~--4~~~~--4~~~~--|
A|-2~~~~--2~~~~--2~~~~--2~~~~--|
E|-----------------------------|

[Primeira Parte]

            B5              
Yeah my girlfriend 
          F#5                        E5
Takes me home when I'm too drunk to drive
         B5             C#5            E5
And she doesn't get all jealous when I hang out with the guys
    B5                F#5               E5 
She laughs at my dumb jokes when no one does

E|-----------------------------------|
B|-----------------------------------|
G|-----------------------------------|
D|-----------------------------------|
A|-2-2---2-2-2---2-2-2---2-2-2---2---|
E|-0-0---0-0-0---0-0-0---0-0-0---0---|

P.M...............................

              B5                C#5           E5
She brings me mexican food from sombrero just because
          B5
Yeah just because
            B5             F#5       E5
Yeah my girlfriend likes u.l and d.h.c
            B5                C#5           E5
And she's so smart and independent, I don't think she needs me
      B5                F#5         E5
Quite half as much as I know I need her

E|-----------------------------------|
B|-----------------------------------|
G|-----------------------------------|
D|-----------------------------------|
A|-2-2---2-2-2---2-2-2---2-2-2---2---|
E|-0-0---0-0-0---0-0-0---0-0-0---0---|

P.M...............................

         B5              C#5     E5
I wonder why there's not another guy that she'd prefer.

[Pré-Refrão]

    F#5                     Em                          
And when I feel like giving up 
                         B5
Like my world is falling down
       F#5              C#5
I show up at 3am, she's still up watching vacation
      E5
And I see her pretty face

It takes me away to a better place and

[Refrão] 

B5                    
I know that everything
F#5                   E5
Know that everything, know that everything
G#5          F#5
Everything's gonna be fine!

[Segunda Parte]

           B5     
And my girlfriend 
      F#5                    E5
Takes collect calls from the road
       B5                  C#5         E5
And it doesn't seem to matter that I'm lacking in the bulge
   B5                F#5               E5 
She laughs at my dumb jokes when no one does

E|-----------------------------------|
B|-----------------------------------|
G|-----------------------------------|
D|-----------------------------------|
A|-2-2---2-2-2---2-2-2---2-2-2---2---|
E|-0-0---0-0-0---0-0-0---0-0-0---0---|

P.M...............................

              B5                C#5           E5
She brings me mexican food from sombrero just because

[pré-refrão]

    F#5                     Em                          
And when I feel like giving up 
                         B5
Like my world is falling down
       F#5              C#5
I show up at 3am, she's still up watching vacation
      E5
And I see her pretty face

It takes me away to a better place and

[Refrão] 

B5                    
I know that everything
F#5                   E5
Know that everything, know that everything
G#5          F#5
Everything's gonna be fine!

[Ponte]

E|-----------------------------|
B|-----------------------------|
G|-4~~~~--4~~~~--4~~~~--4~~~~--|
D|-4~~~~--4~~~~--4~~~~--4~~~~--|
A|-2~~~~--2~~~~--2~~~~--2~~~~--|
E|-----------------------------|
                          
[Refrão] 

B5                    
I know that everything
F#5                   E5
Know that everything, know that everything
G#5          F#5
Everything's gonna be fine!

( B5 )
Página 1 / 1

Letras e título
Acordes e artista

resetar configurações
OK