Cifra Club

Josie

blink-182

Tab de baixo: Principal
Tuning : E A D G 	Time Signature 4/4

Intro 1:

 |       |       |       |        |       |       |       |       
|--------------------------------|--------------------------------|
|4-------------------------------|4-------------------------------|
|--------------------------------|--------------------------------|
|--------------------------------|--------------------------------|

 |       |       |       |        |       |       |       |       
|--------------------------------|--------------------------------|
|4-------------------------------|4-------------------------------|
|--------------------------------|--------------------------------|
|--------------------------------|--------------------------------|

Intro 2:

 |       |       |       |        |       |       |       |       
|----4---4---4-------4---4---4---|----4---4---4---4---4---4---4---|
|4-----4---4---4-6-----6---6---6-|2-----2---2---2---2---2---2---2-|
|--------------------------------|--------------------------------|
|--------------------------------|--------------------------------|

 |       |       |       |        |       |       |       |       
|----4---4---4-------4---4---4---|----4---4---4---4---4---4---4---|
|4-----4---4---4-6-----6---6---6-|2-----2---2---2---2---2---2---2-|
|--------------------------------|--------------------------------|
|--------------------------------|--------------------------------|

 |       |       |       |        |       |       |       |       
|----4---4---4-------4---4---4---|----8---8---8-------4---4---4---|
|4-----4---4---4-6-----6---6---6-|6-----6---6---6-2-----2---2---2-|
|--------------------------------|--------------------------------|
|--------------------------------|--------------------------------|

 |       |       |       |        |       |       |       |       
|----4---4---4-------4---4---4---|--------------------------------|
|4-----4---4---4-6-----6---6---6-|2-2-2-2-2-2-2-2-2---------------|
|--------------------------------|--------------------------------|
|--------------------------------|--------------------------------|

Verse:

 |       |       |       |        |       |       |       |       
|--------------------------------|--------------------------------|
|--------------------------------|--------------------------------|
|2-2-2-2-2-2-2-2-----------------|--------------------------------|
|----------------2-2-2-2-2-2-2-2-|0-0-0-0-0-0-0-0-0-0-0-0-0-0-0-0-|

 |       |       |       |        |       |       |       |       
|--------------------------------|--------------------------------|
|--------------------------------|--------------------------------|
|2-2-2-2-2-2-2-2-4-4-4-4-4-4-4-4-|--------------------------------|
|--------------------------------|0-0-0-0-0-0-0-0-0-0-0-0-0-0-0-0-|

(Repeat last four bars)

 |       |       |       |        |       |       |       |       
|--------------------------------|--------------------------------|
|--------------------------------|--------------------------------|
|2-2-2-2-2-2-2-2-2---------------|--------------------------------|
|--------------------------------|--------------------------------|

Repeat Verse riff


Pre Chorus:

 |       |       |       |        |       |       |       |       
|--------------------------------|--------------------------------|
|--------------------------------|--------------------------------|
|--------------------------------|--------------------------------|
|2-2-2-2-2-2-2-2-2-2-2-2-2-2-2-2-|0-0-0-0-0-0-0-0-0-0-0-0-0-0-0-0-|

 |       |       |       |        |       |       |       |       
|--------------------------------|--------------------------------|
|--------------------------------|--------------------------------|
|2-2-2-2-2-2-2-2-2-2-2-2-2-2-2-2-|2-2-2-2-2-2-2-2-2-2-2-2-2-2-2-2-|
|--------------------------------|--------------------------------|

 |       |       |       |        |       |       |       |       
|--------------------------------|--------------------------------|
|--------------------------------|--------------------------------|
|--------------------------------|4-4-4-4-4-4-4-4-4-4-4-4-4-4-4-4-|
|2-2-2-2-2-2-2-2-2-2-2-2-2-2-2-2-|--------------------------------|

 |       |       |       |        |       |       |       |       
|--------------------------------|--------------------------------|
|--------------------------------|--------------------------------|
|--------------------------------|--------------------------------|
|0-0-0-0-0-0-0-0-0-0-0-0-0-0-0-0-|0-0-0-0-0-0-0-0-0-0-0-0-0-0-0-0-|


Chorus:

 |       |       |       |        |       |       |       |       
|--------------------------------|--------------------------------|
|--------------------------------|--------------------------------|
|2-2-2-2-2-2-2-2-----------------|--------------------------------|
|----------------2-2-2-2-2-2-2-2-|0-0-0-0-0-0-0-0-4-4-4-4-2-2-2-2-|


 |       |       |       |        |       |       |       |       
|--------------------------------|--------------------------------|
|--------------------------------|--------------------------------|
|2-2-2-2-2-2-2-2-----------------|--------------------------------|
|----------------2-2-2-2-2-2-2-2-|0-0-0-0-0-0-0-0-4-4-4-4-2-2-2-2-|



 |       |       |       |        |       |       |       |       
|--------------------------------|--------------------------------|
|--------------------------------|--------------------------------|
|2-2-2-2-2-2-2-2-2---------------|--------------------------------|
|--------------------------------|--------------------------------|


(Repeat Verse Riff)

(Repeat Pre chorus)

(Repeat Chorus twice)

 |       |       |       |        |       |       |       |       
|--------------------------------|--------------------------------|
|--------------------------------|--------------------------------|
|2-2-2-2-2-2-2-2-2---------------|--------------------------------|
|--------------------------------|--------------------------------|

(Repeat Intro 2)

(Repeat Chorus Twice)



_______________________________________________________
Contribuição: Vinicius Bittencourt(psychors@zaz.com.br)
exibições 15.286
Composição: blink-182 / Mark Hoppus

0 comentários

mostrar mais comentários

Conseguiu tocar?

1 tocaram 0 ainda não

Grave um vídeo tocando Josie e mande pra gente!

00:00 / 00:00
outros vídeos desta música
repetir qualidade Automático
Outros vídeos desta música
00:00 / 00:00
Automático
OK