Cifra Club

What´s My Age Again ?

blink-182

Tab de baixo: Principal
--------------------------|----------------------------|
--------------------------|----------------------------|
--2--2--2--2--------------|--4--4--4--4--6--6--6--6----|
--------------2--2--2--2--|----------------------------|
                                                     
                                                                             
--------------------------|--------------------------|----------------------|
--------------------------|--------------------------|--4-------------------|5x
--4--4--4--4--4--4--4--4--|--2--2--2--2--2--2--2--2--|---------4--4------6--|
--------------------------|--------------------------|----------------------|
                                                                         
------------------------|----------------------|------------------------|
------------------------|--4-------------------|------------------------|
--6------2--2--2--2--4--|---------4--4------6--|--6------2--2--2--2--4--|
------------------------|----------------------|------------------------|
                                                                       
----------------------|------------------------|----------------------|
--4-------------------|------------------------|--4-------------------|
---------4--4------6--|--6------2--2--2--2--4--|---------4--4------6--|
----------------------|------------------------|----------------------|
                                                                          
--------------------------|--------------------------|-------------------|
--------------------------|--------------------------|--4----------------| 2x
--6--6--6--6--6--6--6--6--|--4--4--4--4--4--4--4--4--|--2----------------|
--------------------------|--------------------------|-------------------|
                                                                             
------------------|--------------------------|--------------------------|
------------------|--------------------------|--------------------------|
------------------|--2--2--2--2--------------|--4--4--4--4--6--6--6--6--|
------------------|--------------2--2--2--2--|--------------------------|
                                                                             
--------------------------|--------------------------|----------------------|
--------------------------|--------------------------|--4-------------------|
--4--4--4--4--4--4--4--4--|--2--2--2--2--2--2--2--2--|---------4--4------6--|
--------------------------|--------------------------|----------------------|
                                                                         
------------------------|----------------------|------------------------|
------------------------|--4-------------------|------------------------|
--6------2--2--2--2--4--|---------4--4------6--|--6------2--2--2--2--4--|
------------------------|----------------------|------------------------|
                                                                       
----------------------|------------------------|----------------------|
--4-------------------|------------------------|--4-------------------|
---------4--4------6--|--6------2--2--2--2--4--|---------4--4------6--|
----------------------|------------------------|----------------------|
                                                      
--------------------------|--------------------------|
--------------------------|--------------------------|
--6--6--6--6--6--6--6--6--|--4--4--4--4--4--4--4--4--|
--------------------------|--------------------------|
                                                      
--------------------------|--------------------------|
--------8--------8-----8\-|--------6--------6-----6\-|
--6--6-----6--6-----6-----|--4--4-----4--4-----4-----|
--------------------------|--------------------------|
                                                      
--------------------------|--------------------------|
--------4--------4-----4--|--------6--------6-----6--|
--2--2-----2--2-----2-----|--4--4-----4--4-----4-----|
--------------------------|--------------------------|
                                                      
--------------------------|--------------------------|
--------8--------8-----8\-|--------6--------6-----6\-|
--6--6-----6--6-----6-----|--4--4-----4--4-----4-----|
--------------------------|--------------------------|
                                                      
--------------------------|--------------------------|
--------4--------4-----4--|--------6--------6-----6--|
--2--2-----2--2-----2-----|--4--4-----4--4-----4-----|
--------------------------|--------------------------|
                                                      
--------------------------|--------------------------|
--------8--------8-----8\-|--------6--------6-----6\-|
--6--6-----6--6-----6-----|--4--4-----4--4-----4-----|
--------------------------|--------------------------|
                                                      
--------------------------|--------------------------|
--------4--------4-----4--|--------6--------6-----6--|
--2--2-----2--2-----2-----|--4--4-----4--4-----4-----|
--------------------------|--------------------------|
                                                      
--------------------------|--------------------------|
--------8--------8-----8\-|--------6--------6-----6\-|
--6--6-----6--6-----6-----|--4--4-----4--4-----4-----|
--------------------------|--------------------------|
                                                                             
--------------------------|--------------------------|----------------------|
--------4--------4-----4--|--------6--------6--------|--4-------------------|
--2--2-----2--2-----2-----|--4--4-----4--4-----4--4--|---------4--4------6--|
--------------------------|--------------------------|----------------------|
                                                                         
------------------------|----------------------|------------------------|
------------------------|--4-------------------|------------------------|
--6------2--2--2--2--4--|---------4--4------6--|--6------2--2--2--2--4--|
------------------------|----------------------|------------------------|
                                                                       
----------------------|------------------------|----------------------|
--4-------------------|------------------------|--4-------------------|
---------4--4------6--|--6------2--2--2--2--4--|---------4--4------6--|
----------------------|------------------------|----------------------|
                                                                             
--------------------------|--------------------------|----------------------|
--------------------------|--------------------------|--4-------------------|
--6--6--6--6--6--6--6--0--|--4--4--4--4--4--4--4--4--|---------4--4------6--|
--------------------------|--------------------------|----------------------|
                                                                         
------------------------|----------------------|------------------------|
------------------------|--4-------------------|------------------------|
--6------2--2--2--2--4--|---------4--4------6--|--6------2--2--2--2--4--|
------------------------|----------------------|------------------------|
                                                                      
----------------------|------------------------|----------------------|
--4-------------------|------------------------|--4-------------------|
---------4--4------6--|--6------2--2--2--2--4--|---------4--4------6--|
----------------------|------------------------|----------------------|
                                                                             
--------------------------|--------------------------|----------------------|
--------------------------|--------------------------|--4-------------------|
--6--6--6--6--6--6--6--0--|--4--4--4--4--4--4--4--4--|---------4--4------6--|
--------------------------|--------------------------|----------------------|
                                                                         
------------------------|----------------------|------------------------|
------------------------|--4-------------------|------------------------|
--6------2--2--2--2--4--|---------4--4------6--|--6------2--2--2--2--4--|
------------------------|----------------------|------------------------|
                                                                       
----------------------|------------------------|----------------------|
--4-------------------|------------------------|--4-------------------|
---------4--4------6--|--6------2--2--2--2--4--|---------4--4------6--|
----------------------|------------------------|----------------------|
                                                                          
--------------------------|--------------------------|-------------------|
--------------------------|--------------------------|--4----------------|
--6--6--6--6--6--6--6--0--|--4--4--4--4--4--4--4--2--|--2----------------|
--------------------------|--------------------------|-------------------|
exibições 26.750
Colaboração e revisão:
  • Nelson

0 comentários

mostrar mais comentários

Conseguiu tocar?

4 tocaram 0 ainda não

Grave um vídeo tocando What´s My Age Again ? e mande pra gente!

00:00 / 00:00
outros vídeos desta música
repetir qualidade Automático
Outros vídeos desta música
00:00 / 00:00
Automático
OK