Cifra Club

A Lapdance Is So Much Better When The Stripper Is Crying

Bloodhound Gang

Tab de baixo: Principal
Tabbed by Robin Graves

Verse:

G-------------9-9---------------------7-7-----7-7--|
D------7-77-7---------7-7-----7-7-5-5-----5-5------|
A--5-5------------5-5-----5-5----------------------|
E--------------------------------------------------|

G----------------------7-7-----7-7--------------------9-9-|
D------7-7-----7-7-5-5-----5-5---------7-7-----7-77-7-----|
A--5-5-----5-5---------------------5-5-----5-5------------|
E---------------------------------------------------------|

G------9-9----------------|
D--7-7---------7-7-----7--|
A----------5-5-----5-5----|
E-------------------------|

Chorus: same as verse, so start all over!

G-------------9-9---------------------7-7-----7-7--|
D------7-77-7---------7-7-----7-7-5-5-----5-5------|
A--5-5------------5-5-----5-5----------------------|
E--------------------------------------------------|

G----------------------7-7-----7-7--------------------9-9-|
D------7-7-----7-7-5-5-----5-5---------7-7-----7-77-7-----|
A--5-5-----5-5---------------------5-5-----5-5------------|
E---------------------------------------------------------|

G------9-9----------------|
D--7-7---------7-7-----7--|
A----------5-5-----5-5----|
E-------------------------|


End: play this riff a couple of times

G-------------9-9----|
D------7-77-7--------|
A--5-5------------5--|
E--------------------|
00:00 / 00:00
Outros vídeos desta música
Repetir
Outros vídeos desta música
Composição de Jimmy Pop Ali
254 exibições

0 comentários

Ver todos os comentários

Entre para oCifra Club PRO

Tenha acesso a benefícios exclusivos no App e no Site

  • Chega de anúncios

  • Prioridade de compra em lançamentos

  • Mais recursos no app do Afinador

  • Atendimento Prioritário

  • Descontos nos produtos Cifra Club

  • Ajude a produzir mais conteúdo

00:00 / 00:00

Cifra Club Pro

Aproveite o Cifra Club com benefícios exclusivos e sem anúncios
Cifra Club Pro
Aproveite o Cifra Club com benefícios exclusivos e sem anúncios
OK