Cifra Club

Along Comes Mary

Bloodhound Gang

Cifra: Principal (violão e guitarra)
tom: F
Intro:
e|---------------------------------
B|---------------------------------
G|-------------5-5-7-7-7-7-7-7-5-5-
D|-5-5-5-5-5-5-5-5-7-7-7-7-7-7-5-5-
A|-5-5-5-5-5-5-3-3-5-5-5-5-5-5-3-3-
E|-3-3-3-3-3-3---------------------

---------------------------------|
---------------------------------|
-8-8-8-8-8-8-7-7-5-5-5-5-5-5-7-7-|
-8-8-8-8-8-8-7-7-5-5-5-5-5-5-7-7-|
-6-6-6-6-6-6-5-5-3-3-3-3-3-3-5-5-|
---------------------------------|

Pre-Chorus:
e|---------------------------------|
B|---------------------------------|
G|---------7-7-7-7-8-8-8-8-5-5-5-5-|
D|-5-5-5-5-7-7-7-7-8-8-8-8-5-5-5-5—|
A|-5-5-5-5-5-5-5-5-6-6-6-6-3-3-3-3-|
E|-3-3-3-3-------------------------|

Chorus 1:
e|---------------------------------|
B|---------------------------------|
G|-7--8-8---7--5-5---7-----------3-|
D|-7--8-8---7--5-5---7--5-5---3--3-|
A|-5--6-6---5--3-3---5--5-5---3--1-|
E|----------------------3-3---1----|

Chorus 2:
e|-------------------------------------
B|-------------------------------------
G|-7-7-8-8-8-8-8-8-7-7-5-5-5-5-5-5-7-7-
D|-7-7-8-8-8-8-8-8-7-7-5-5-5-5-5-5-7-7-
A|-5-5-6-6-6-6-6-6-5-5-3-3-3-3-3-3-5-5-
E|-------------------------------------

----------------------------|
----------------------------|
----------------3-3-3-3-3-3-|
5-5-5-5-5-5-3-3-3-3-3-3-3-3-|
5-5-5-5-5-5-3-3-1-1-1-1-1-1-|
3-3-3-3-3-3-1-1-------------|

Intro 2x

Every time I think that I'm 
The only one who's lonely someone 
Calls on me 
And every now and then I spend 
My time at rhyme and verse and curse those 
Faults in me 

And then along comes Mary 
Mary Mary 
Then along comes Mary 
Mary Mary 

Pre-Chorus 1x
And does she want to give me kicks 
And be my steady chick and give me pick 
Of memories? 

Pre-Chorus 1x
Or maybe rather gather tales from all the 
Fails and tribulations no one 
Ever sees? 

Chorus 1 - 1x
When we met I was sure out to lunch 
Now my empty cup tastes as sweet as the punch 
Sweet as the punch 

Intro 2x

When vague desire is the fire in 
The eyes of chicks whose sickness is the 
Games they play 
And when the masquerade is played and neighbor 
Folks make jokes as who is most to 
Blame today 

And then along comes Mary 
Mary Mary 
Then along comes Mary 
Mary Mary 

Pre-Chorus 1x
And does she want to set them free 
And let them see reality from where she 
Got her name? 

Pre-Chorus 1x
And will they struggle much when told that such 
A tender touch of hers will make them 
Not the same? 

Chorus 1 - 1x
When we met I was sure out to lunch 
Now my empty cup tastes as sweet as the punch 
Sweet as the punch 

Intro 2x

And when the morning of the warning's passed 
The gassed and flaccid kids are flung 
Across the stars 

The psychodramas and the traumas gone 
The songs are left unsung and hung 
Upon the scars 

And then along comes Mary 
Mary Mary 
Then along comes Mary 
Mary Mary 

Pre-Chorus 1x
And does she want to see the stains the 
Dead remains of all the pains she left the 
Night before? 

Pre-Chorus 1x
Or will their wakin' eyes reflect the lies 
And make them realize their urgent cry for 
Sight no more? 

Chorus 1x
When we met I was sure out to lunch 
Now my empty cup tastes as sweet as the punch 
Sweet as the punch 

Intro - 2x
 
Chorus 1 - 2x
When we met I was sure out to lunch 
Now my empty cup tastes as sweet as the punch 
When we met I was sure out to lunch 
Now my empty cup tastes as sweet as the punch 

Chorus 2 - 2x(p.m)
When we met I was sure out to lunch 
Now my empty cup tastes as sweet as the punch 
When we met I was sure out to lunch 
Now my empty cup tastes as sweet as the punch 

Chorus 2 - 2x
When we met I was sure out to lunch 
Now my empty cup tastes as sweet as the punch 
When we met I was sure out to lunch 
Now my empty cup tastes as sweet as the punch 
Sweet as the punch 
00:00 / 00:00
Outros vídeos desta música
Repetir
Outros vídeos desta música
Composição de Tandyn Almer
3.592 exibições
    • ½ Tom
    • A
    • Bb
    • B
    • C
    • Db
    • D
    • Eb
    • E
    • F
    • F#
    • G
    • Ab
  • Adicionar à lista

    0 comentários

    Ver todos os comentários

    Entre para oCifra Club PRO

    Tenha acesso a benefícios exclusivos no App e no Site

    • Chega de anúncios

    • Prioridade de compra em lançamentos

    • Mais recursos no app do Afinador

    • Atendimento Prioritário

    • Descontos nos produtos Cifra Club

    • Ajude a produzir mais conteúdo

    00:00 / 00:00

    Cifra Club Pro

    Aproveite o Cifra Club com benefícios exclusivos e sem anúncios
    Cifra Club Pro
    Aproveite o Cifra Club com benefícios exclusivos e sem anúncios
    OK