Cifra Club

Aprenda

Burnin' For You

Blue Öyster Cult

Tab de baixo: Principal
Heres the whole song from beginning to end. Im pretty sure its all right.

 G|----------|
 D|----------|
 A|----------|
 E|-1~-1~-1~-|

  |-------------------------------------------------------|
  |-------------------------------------------------------|
  |----------00000000-------------------------------------|
  |-33333333----------11111111-33333333-00000000-11111111-|

   --------------------|
   -00000000-----------|
   --------------------|
   ----------33333333--|

  |--------------------0-----------------------|
  |------------22222------00000---3--3333-55---|
  |-00000---3--------2----------0--------------|
  |-------0----------------------------------3-|

  |--------------------0-----------------------|
  |------------22222------00000---3--3333-2----|
  |-00000---3--------2----------0--------------|
  |-------0---------------------------------3--|

  |--------------------0-----------------------|
  |------------22222------00000---3--3333-55---|
  |-00000---3--------2----------0--------------|
  |-------0----------------------------------3-|

  |--------------------0-----------------------|
  |------------22222------00000---3--3333-2222-|
  |-00000---3--------2----------0--------------|
  |-------0------------------------------------|

  |----------------|
  |----------------| x2
  |-0---0----------|
  |---3---3--1-3-3-|

  |-----------------------|
  |-----------------------|
  |-3-0-----0-3-3-0-----0-|
  |-----3-3---------3-3---|

  |---------------------|
  |---------------------|
  |---0-3-------0-3-----|
  |-1-----0-1-1-----3-3-|

  |------------------------------|
  |-------------------000--------|
  |-3-3-222-0-0----23------------|
  |-------------33--------0-1-33-|

  |----------------|
  |----------------| x2
  |-0---0----------|
  |---3---3--1-3-3-|

  |----------------|
  |----------------|
  |-0---0----------|
  |---3---3--1-3---|

  |-------|
  |-------|
  |-------|
  |-1~-1~-|

  |-------------------------------------------------------|
  |-------------------------------------------------------|
  |----------00000000-------------------------------------|
  |-33333333----------11111111-33333333-00000000-11111111-|

   --------------------|
   -00000000-----------|
   --------------------|
   ----------33333333--|

  |--------------------0-----------------------|
  |------------22222------00000---3--3333-55---|
  |-00000---3--------2----------0--------------|
  |-------0----------------------------------3-|

  |--------------------0-----------------------|
  |------------22222------00000---3--3333-2----|
  |-00000---3--------2----------0--------------|
  |-------0---------------------------------3--|

  |--------------------0-----------------------|
  |------------22222------00000---3--3333-55---|
  |-00000---3--------2----------0--------------|
  |-------0----------------------------------3-|

  |--------------------0-----------------------|
  |------------22222------00000---3--3333-2222-|
  |-00000---3--------2----------0--------------|
  |-------0------------------------------------|

  |----------------|
  |----------------| x2
  |-0---0----------|
  |---3---3--1-3-3-|

  |-----------------------|
  |-----------------------|
  |-3-0-----0-3-3-0-----0-|
  |-----3-3---------3-3---|

  |---------------------|
  |---------------------|
  |---0-3-------0-3-----|
  |-1-----0-1-1-----3-3-|

  |------------------------------|
  |-------------------000--------|
  |-3-3-222-0-0----23------------|
  |-------------33--------0-1-33-|

  |----------------|
  |----------------| x2
  |-0---0----------|
  |---3---3--1-3-3-|

  |----------------|
  |----------------|
  |-0---0----------|
  |---3---3--1-3---|

  |-------|
  |-------|
  |-------|
  |-1~-1~-|

  |--------------------0-----------------------|
  |------------22222------00000---3--3333-55---|
  |-00000---3--------2----------0--------------|
  |-------0----------------------------------3-|

  |--------------------0-----------------------|
  |------------22222------00000---3--3333-2----|
  |-00000---3--------2----------0--------------|
  |-------0---------------------------------3--|

  |--------------------0-----------------------|
  |------------22222------00000---3--3333-55---|
  |-00000---3--------2----------0--------------|
  |-------0----------------------------------3-|

  |--------------------0-----------------------|
  |------------22222------00000---3--3333-2222-|
  |-00000---3--------2----------0--------------|
  |-------0------------------------------------|

  |----------------|
  |----------------| x2
  |-0---0----------|
  |---3---3--1-3-3-|

  |-----------------------|
  |-----------------------|
  |-3-0-----0-3-3-0-----0-|
  |-----3-3---------3-3---|

  |---------------------|
  |---------------------|
  |---0-3-------0-3-----|
  |-1-----0-1-1-----3-3-|

  |------------------------------|
  |-------------------000--------|
  |-3-3-222-0-0----23------------|
  |-------------33--------0-1-33-|

  |----------------|
  |----------------| x7
  |-0---0----------|
  |---3---3--1-3-3-|

  |----------|
  |----------|
  |----------|
  |-1~-1~-1~-|

  |----|
  |----|
  |-0~-|
  |----|
Composição de Donald Roeser / Richard Meltzer
2.287 exibições

0 comentários

Ver todos os comentários

Conseguiu tocar?

0 Tocaram 0 Ainda não

Grave um vídeo tocando Burnin' For You e nos envie!

00:00 / 00:00
Outros vídeos desta música
Repetir Qualidade Automático
Outros vídeos desta música
00:00 / 00:00
Automático

Cifra Club Pro

Aproveite o Cifra Club com benefícios exclusivos e sem anúncios
Cifra Club Pro
Aproveite o Cifra Club com benefícios exclusivos e sem anúncios
OK