Cifra Club

Aprenda

Don't Fear the Reaper

Blue Öyster Cult

Cifra: Principal (violão e guitarra)
tom: C
Intro
e|------------------------------------------------------------
B|------------------------------------------------------------
G|-------2-0--------0--------0-------0------------------------
D|-----2----------0--------0-------0--------------------------
A|---0----------2--------3-------2----------------------------
E|------------3--------1-------3------------------------------ x4 

Verse 1
e|------------------------------------------------------------
B|------------------------------------------------------------
G|-------2-0--------0--------0-------0------------------------
D|-----2----------0--------0-------0--------------------------
A|---0----------2--------3-------2----------------------------
E|------------3--------1-------3------------------------------ x4

e|------------------------------------------------------------
B|------------------------------------------------------------
G|------------------------------------------------------------
D|------------------------------------------------------------
A|------------------------------------------------------------
E|--1-1-1-1-3-3-3-3-5-5-5-5-5-5-5-5---------------------------

e|------------------------------------------------------------
B|------------------------------------------------------------
G|-----------------------------------------0--------0---------
D|---------------------------------------0--------0-----------
A|-------------------------------------3--------2-------------
E|--1-1-1-1-0-0-0-0-5-5-5-5-3-3-3-3--1--------3---------------

Refrão 
e|------------------------------------------------------------
B|------------------------------------------------------------
G|-------2-0--------0--------0-------0------------------------
D|-----2----------0--------0-------0--------------------------
A|---0----------2--------3-------2----------------------------
E|------------3--------1-------3------------------------------ x4

Parte 1 do solo
e|--15-13-12-13----12-----------------------------------------
B|--------------15----15^17---15-13-12------------------------
G|------------------------------------12----14----------------
D|---------------------------------------14-------------------
A|------------------------------------------------------------
E|------------------------------------------------------------

e|------------------------------------------------------------
B|------------------------------------------------------------
G|-------2-0--------0--------0-------0------------------------
D|-----2----------0--------0-------0--------------------------
A|---0----------2--------3-------2----------------------------
E|------------3--------1-------3------------------------------ x2

e|------------------------------------------------------------
B|------------------15-15^17^15-13-12-------------------------
G|--14-16-17--16\14-------------------12----14----------------
D|--------------------------------------14--------------------
A|------------------------------------------------------------
E|------------------------------------------------------------

e|------------------------------------------------------------
B|------------------------------------------------------------
G|-------2-0--------0--------0-------0------------------------
D|-----2----------0--------0-------0--------------------------
A|---0----------2--------3-------2----------------------------
E|------------3--------1-------3------------------------------ x2

e|---------------12-------------------------------------------
B|-----12-12b13-----12----------12----------------------------
G|--14-----------------14-12-------14-------------------------
D|---------------------------14-------------------------------
A|------------------------------------------------------------
E|------------------------------------------------------------

e|------------------------------------------------------------
B|--------------------------------------1---------------------
G|-------2-0--------0--------0-------0--2---------------------
D|-----2----------0--------0-------0----2---------------------
A|---0----------2--------3-------2------0---------------------
E|------------3--------1-------3------------------------------

Ponte
e|------------------------------------------------------------
B|------------------------------------------------------------
G|-------2-0--------0--------0-------0------------------------
D|-----2----------0--------0-------0--------------------------
A|---0----------2--------3-------2----------------------------
E|------------3--------1-------3------------------------------ x4

Verso 2
e|------------------------------------------------------------
B|------------------------------------------------------------
G|-------2-0--------0--------0-------0------------------------
D|-----2----------0--------0-------0--------------------------
A|---0----------2--------3-------2----------------------------
E|------------3--------1-------3------------------------------ x4

e|------------------------------------------------------------
B|--/10\8-/10--5----------------------------------------------
G|--/-9\7-/-9--5-\-5-----5------------------------------------
D|-----------------7-5---3------------------------------------
A|---------------------7--------------------------------------
E|------------------------------------------------------------

e|------------------------------------------------------------
B|------------------------------------------------------------
G|------------------------------------------------------------
D|------------------------------------------------------------
A|----------------0-------------------------------------------
E|--1-1-1-1-3-3-3---5-5-5-5-5-5-5-5--1-1-1-1-0-0-0-0----------

e|------------------------------------------------------------
B|------------------------------------------------------------
G|------------------------------------------------------------
D|------------------------------------------------------------
A|----------------5\3-----3/5-----5/7-----7\5-----5\3---------
E|--5-5-5-5-3-3-3-3\1-1-1-1/3-3-3-3/5-5-5-5\3-3-3-3\1---------

e|------------------------------------------------------------
B|------------------------------------------------------------
G|------------------------------------------------------------
D|------------------------------------------------------------
A|------3/5-----5/7-----7\5-----5\3-----3/5-----5/7-----------
E|--1-1-1/3-3-3-3/5-5-5-5\3-3-3-3\1-1-1-1/3-3-3-3/5-5-5-------
 
e|------------------------------------------------------------
B|------------------------------------------------------------
G|------------------0-------0---------------------------------
D|----------------0-------0-----------------------------------
A|--7\5---------3-------2-------------------------------------
E|--5\3-3-3-0-1-------3---------------------------------------
                     
Refrão
e|------------------------------------------------------------
B|------------------------------------------------------------
G|-------2-0--------0--------0-------0------------------------
D|-----2----------0--------0-------0--------------------------
A|---0----------2--------3-------2----------------------------
E|------------3--------1-------3------------------------------ x4

Parte 2 do solo
e|-12---------------------------------------------------------
B|----12^13^12-10---------------------------------------------
G|------------------------------------------------------------
D|------------------------------------------------------------
A|------------------------------------------------------------
E|------------------------------------------------------------

e|------------------------------------------------------------
B|------------------------------------------------------------
G|-------2-0--------0--------0-------0------------------------
D|-----2----------0--------0-------0--------------------------
A|---0----------2--------3-------2----------------------------
E|------------3--------1-------3------------------------------ x2

e|--12--------------------------------------------------------
B|-----12^13^12-10----10-10-10--------------------------------
G|-----------------12-----------------------------------------
D|------------------------------------------------------------
A|------------------------------------------------------------
E|------------------------------------------------------------

e|------------------------------------------------------------
B|------------------------------------------------------------
G|-------2-0--------0--------0-------0------------------------
D|-----2----------0--------0-------0--------------------------
A|---0----------2--------3-------2----------------------------
E|------------3--------1-------3------------------------------ x2

e|------------------------------------------------------------
B|-10-12^13^12--10-8/10-10/12-12\10---------------------------
G|------------------------------------------------------------
D|------------------------------------------------------------
A|------------------------------------------------------------
E|------------------------------------------------------------

e|------------------------------------------------------------
B|--------------------------------------1---------------------
G|-------2-0--------0--------0-------0--2---------------------
D|-----2----------0--------0-------0----2---------------------
A|---0----------2--------3-------2------0---------------------
E|------------3--------1-------3------------------------------

e|-------8-----8------8------8------8--------------------------
B|-----9-----9------9------9------9----------------------------
G|--10----10-----10-----10-----10------------------------------
D|-------------------------------------------------------------
A|-------------------------------------------------------------
E|-------------------------------------------------------------

e|-------7------7------7------7------7------7------------------
B|-----8------8------8------8------8------8--------------------
G|--10-----10-----10-----10-----10-----10----------------------
D|-------------------------------------------------------------
A|-------------------------------------------------------------
E|-------------------------------------------------------------

e|-------8-----8------8------8------8--------------------------
B|-----9-----9------9------9------9----------------------------
G|--10----10-----10-----10-----10------------------------------
D|-------------------------------------------------------------
A|-------------------------------------------------------------
E|-------------------------------------------------------------

e|-------7------7------7------7------7------7------------------
B|-----8------8------8------8------8------8--------------------
G|--10-----10-----10-----10-----10-----10----------------------
D|-------------------------------------------------------------
A|-------------------------------------------------------------
E|-------------------------------------------------------------

Solo
e|-15t-15b(16)--13h15p13-13-15-15-------------13----15b(16)15--
B|-------------------------------15--15-16-15----16------------
G|-------------------------------------------------------------
D|-------------------------------------------------------------
A|-------------------------------------------------------------
E|-------------------------------------------------------------

e|-/19-19-19^20--15-15h16p15--15h16p15----15-13h15p13---13-----
G|-------------------------------------18-------------17-------
B|-------------------------------------------------------------
D|-------------------------------------------------------------
A|-------------------------------------------------------------
E|-------------------------------------------------------------

e|----------------------------------15b(17)15-13-11-13----11---
B|-15-17-13--12h13p12----------------------------------15------
G|--------------------12h13p12--12-----------------------------
D|-------------------------------------------------------------
A|-------------------------------------------------------------
E|-------------------------------------------------------------

e|-------------------------------------------------------------
B|-13-15-15(16)15--13-12h13p12-13-12h13p12---------------------
G|-----------------------------------------13p12-12----12------
D|--------------------------------------------------15---------
A|-------------------------------------------------------------
E|-------------------------------------------------------------

e|--------------------------------------13---------------------
B|----13-12----13-12-----------------13------------------------
G|-12-------l2-------12/10--10/12-13-------13-12---------------
D|-------------------------------------------------------------
A|-------------------------------------------------------------
E|-------------------------------------------------------------

e|----15(17)15-------------------------------------------------
B|-------------------------------------------------------------
G|-12----------12\10----10h12-12-------------------------------
D|-------------------------------------------------------------
A|-------------------------------------------------------------
E|-------------------------------------------------------------

e|-------8------8------8------8------8-------------------------  |
B|-----9------9------9------9------9---------------------------  |
G|--10-----10-----10-----10-----10-----------------------------  |
D|-------------------------------------------------------------  |
A|-------------------------------------------------------------  |
E|-------------------------------------------------------------  |
                                                                 |
e|-------7------7------7-----7------7------7-------------------  |
B|-----8------8------8-----8------8------8---------------------  |
G|--10-----10-----10----10-----10-----10-----------------------  |
D|-------------------------------------------------------------  |
A|-------------------------------------------------------------  |
E|-------------------------------------------------------------  |x7

Verso 3 e fim...
e|------------------------------------------------------------
B|------------------------------------------------------------
G|-------2-0--------0--------0-------0------------------------
D|-----2----------0--------0-------0--------------------------
A|---0----------2--------3-------2----------------------------
E|------------3--------1-------3------------------------------ x4

e|------------------------------------------------------------
B|------------------------------------------------------------
G|------------------------------------------------------------
D|------------------------------------------------------------
A|---3-3-3-3---5-5-5-5--7-7-7-7-7-7-7-7--3-3-3-3-2-2-2-2-----
E|---1-1-1-1---3-3-3-3--5-5-5-0-5-5-5-5--1-1-1-1-0-0-0-0----- 

e|------------------------------------------------------------
B|------------------------------------------------------------
G|------------------------------------------------------------
D|------------------------------------------------------------
A|---/7-7-7-7-5-5-5-5\3---3-3/5-5-5-5/7-7-7-7\5-5-5-5\--------
E|---/5-5-5-5-3-3-3-3\1-1-1-1/3-3-3-3/5-5-5-5\3-3-3-3\--------  

e|------------------------------------------------------------
B|------------------------------------------------------------
G|------------------------------------------------------------
D|------------------------------------------------------------
A|---3-3-3-3/5-5-5-5/7-7-7-7\5-5-5-5\3-3-3-3/5-5-5-5/---------
E|---1-1-1-1/3-3-3-3/5-5-5-5\3-3-3-3\1-1-1-1/3-3-3-3/---------

e|------------------------------------------------------------
B|------------------------------------------------------------
G|---------------------------0---------0----------------------
D|------------------------------------------------------------
A|---/7-7-7-7\5-5-5-5\----------------------------------------
E|---/5-5-5-5\3-3-3-3\--1---------3---------------------------  
Outro
e|------------------------------------------------------------
B|------------------------------------------------------------
G|------0-----0-----0-----0-----------------------------------
D|------------------------------------------------------------
A|---0--------------------------------------------------------
E|---------3-----1-----3--------------------------------------

Guitarra 2
e|---17-------------------------------------------------------
B|---17--15b(16)15--13----------------------------------------
G|-------16b(17)16--14----------------------------------------
D|------------------------------------------------------------
A|------------------------------------------------------------
E|------------------------------------------------------------
Composição de Donald Roeser
Colaboração e revisão:
  • Marcus Dutra
35.748 exibições
  • Simplificar cifra
    • ½ Tom
    • A
    • Bb
    • B
    • C
    • Db
    • D
    • Eb
    • E
    • F
    • F#
    • G
    • Ab
  • Adicionar à lista

    0 comentários

    Ver todos os comentários

    Conseguiu tocar?

    14 Tocaram 1 Ainda não

    Grave um vídeo tocando Don't Fear the Reaper e nos envie!

    00:00 / 00:00
    Outros vídeos desta música
    Repetir Qualidade Automático
    Outros vídeos desta música
    00:00 / 00:00
    Automático

    Cifra Club Pro

    Aproveite o Cifra Club com benefícios exclusivos e sem anúncios
    Cifra Club Pro
    Aproveite o Cifra Club com benefícios exclusivos e sem anúncios
    OK