Cifra Club

Aprenda

Joan Crawford

Blue Öyster Cult

Tab de baixo: Principal
Tabbed By :ledzep567
e-mail:StewieR*

Tuning:standard
       this is most of the song i just need to put the ending * im not shure of 
third line and the joan crawford has risin part, please correct it if its wrong.


 bass comes in on:42
G|----------------------------------------------|
D|----------------------------------------------|
A|----------------------------------------------|
E|----3----22----33----22----33----22----7------|

G|---------------------------------|x2
D|---------------------------------|
A|---2-2--2\0-0--0/2-2--2--2-2---2-|
E|-------2------0------2-------2---|

G|------------------------------------------------------------------|
D|------------------------------------------------------------------|
A|------------------------------------------------------------------|
E|--3-5-7-5-7-9-7-10-12-7--15-14--12-7-12-10-5-10-555555555555555---|

G|--------------------------------------------|
D|--------------------------------------------|
A|--------------------------------------------|
E|---33333333222222223333333322222222-----32--|

G|--------------------------4-2---------------------------|
D|------------------------------42---42-------------------|
A|--------------------------------2-----2-----------------|
E|--3-3--5-7--5-5--7-9--7-----------------3-5-7-5-77--987-|
       go back to second line.

G|----------------------------------------|
D|----------------------------------------|
A|----------------------------------------|
E|----1212121212121212121212121212121212\-|

G|--------------|x5
D|--------------|
A|--------------|
E|--0000000012\-|

G|--------------------------------------------------------------|
D|--------------------------------------------------------------|
A|--------------------------------------------------------------|
E|--10--------33333333222222223333333322222222333333322222222---|

  thats all i have for right now

| /  slide up
| \  slide down

=============================================================================
Composição de Albert Bouchard / David Roter
727 exibições

0 comentários

Ver todos os comentários

Conseguiu tocar?

0 Tocaram 0 Ainda não

Grave um vídeo tocando Joan Crawford e nos envie!

00:00 / 00:00
Outros vídeos desta música
Repetir Qualidade Automático
Outros vídeos desta música
00:00 / 00:00
Automático

Cifra Club Pro

Aproveite o Cifra Club com benefícios exclusivos e sem anúncios
Cifra Club Pro
Aproveite o Cifra Club com benefícios exclusivos e sem anúncios
OK