Cifra Club

Aprenda

Nosferatu

Blue Öyster Cult

Cifra: Principal (violão e guitarra)
tom: G
************************************
| /   slide up
| \   slide down
| h   hammer-on
| p   pull-off
| ~   vibrato
| +   harmonic
| x   Mute note
| b   Bend
| pb  Pre-bend
| br  Bend release
| pbr Pre-bend release
| brb Bend release bend
************************************

TOM: D

Em          G         F#   F
Deep in the heart of Germany
Em                D         Em
Lucy clutched her breast in fear
Em          G           F#      F
She heard a beat of her lover's heart
Em            D        Em
For weeks she raved in dreams he appeared
C           D       Em
From far off Transylvania

REFRÃO:
C                D
Only a woman can break his spell
C                               D
Pure in heart who will offer herself

Em            C  D  B
To Nosferatu


Em        G         F#        F
This ship pulled in without a sound
Em           D       Em
The faithful captain long since cold
Em          G            F#     F
He kept his log till the bloody end
Em         D     Em
Last entry read "Rats in the hold.
C          D                 Em
My crew is dead - I fear the plague"

REFRÃO:

E|------------------------------------------|
B|------------------------------------------|
G|------------------------------------------| 4x (Lick 1)
D|---------------5--9-----------------------|
A|---7-7------7------------5~---------------|
E|-------5--8-----------8------5------------|

E|------------------------------------------|
B|------------------------------------------|
G|------------------------------------------| 2x (Lick 2)
D|------------------------------------------|
A|--3---------3-------3-5-3-----------------|
E|----3--5-6----5--6---------6--3~----------|

(Lick 1) 2x

E|------------------------------------------|
B|------------------------------------------|
G|------------------------------------------| Executar o Lick 1 após este trecho
D|----------9-9~\----9~-9--9-9\-------------|
A|---7-7----7-7~\----7~-7--7-7\-------------|
E|------------------------------------------|

Em Em         Em      D Em
Mortal terror reigned
Em Em      E      D        Em
Sickness now then horrible death
D
Only Lucy knew the truth
Am               B
And at her window
Em
Nosferatu

Em            G         F#   F
So chaste, so calm, she gave herself
Em     D               Em
To the pleasure of the dreaded master
Em            G        F#       F
He sucked the precious drops of life
Em             D        Em
Throughout the long and cold dark night

Am               F                  Am    F
One last goodbye, he was blinded by love
Am               F                  Am   G
One last goodbye, he was blinded by love
G          Am G F Em
Blinded by love

Em               G                 F#              F
He screamed with fear, he'd stayed too long in her room
Em          D       Em
The morning sun had come too soon
Em            G             F#      F
The spell was broken with a kiss of doom
C                D          Em
He vanished into dust, left her all alone

Em        G         F#        F
Em        G         F#        F
Em        G         F#        F

SOLO:

E|--------------------------------------------------------------------------|
B|-10b-10b~--10pb~-10pb~---10br-10p8-10-8-10/12-10-8------------------------|
G|---------------------------------------------------9-7-7h9-9--------------|
D|--------------------------------------------------------------------------|
A|--------------------------------------------------------------------------|
E|--------------------------------------------------------------------------|

E|--------------------------------------------------------------------------|
B|------------------------------------------10brp8--------------------------|
G|-------9------------------------------------------9~\---------------------|
D|-5h7/9---7-5--------------------------------------------------------------|
A|--------------7--5--------------------------------------------------------|
E|-------------------7-6-5-3-0----------------------------------------------|

E|-15-12--------------------------------------------------------------------|
B|------15-12---------------------------------------------------------------|
G|-----------14-12----------------------12br\9--12br\9~---------------------|
D|----------------14-12-----------------------------------------------------|
A|---------------------14-12------------------------------------------------|
E|--------------------------15-12-------------------------------------------|

E|----------------------------------15-17b-17--17br-17-17brp15--------------|
B|-------------------------------17----------------------------17-----------|
G|----------14brp12--12/14--------------------------------------------------|
D|--------------------------------------------------------------------------|
A|--------------------------------------------------------------------------|
E|--------------------------------------------------------------------------|

E|-------15-17-15----15-17-15----15-17-15-----17brp15-----15-----15---------|
B|-17-17----------17----------17----------17----------17-----17-----17-15---|
G|--------------------------------------------------------------------------|
D|--------------------------------------------------------------------------|
A|--------------------------------------------------------------------------|
E|--------------------------------------------------------------------------|

E|--------------------------------------------------------------------------|
B|--------------------------------------------------------------------------|
G|-16-14-14b-14br\12--------------2-2h4p2-2-2---2-4-2b----------------------|
D|-------------------14-------2-5-------------5--------5-2------------------|
A|--------------------------------------------------------------------------|
E|--------------------------------------------------------------------------|

E|---------------------------------------------------------------10-12/17b~-|
B|-10b-10-8-10p8---------------------------10--10-12-10----10-12------------|
G|---------------9~-9~-9~-9~-9~--11-9-11-12--12---------12------------------|
D|--------------------------------------------------------------------------|
A|--------------------------------------------------------------------------|
E|--------------------------------------------------------------------------|

E|-17b~-17b~-17b~-17b~-17b~-17b~r0--17pbrp15-17----17-15-17~----------------|
B|----------------------------------------------17--------------------------|
G|--------------------------------------------------------------------------|
D|--------------------------------------------------------------------------|
A|--------------------------------------------------------------------------|
E|--------------------------------------------------------------------------|

REFRÃO:

Em
To Nosferatu
Composição de Helen Wheels Band / Joe Bouchard
Colaboração e revisão:
  • José Alberoni
188 exibições
    • ½ Tom
    • A
    • Bb
    • B
    • C
    • Db
    • D
    • Eb
    • E
    • F
    • F#
    • G
    • Ab
  • Adicionar à lista

    0 comentários

    Ver todos os comentários

    Conseguiu tocar?

    0 Tocaram 0 Ainda não

    Grave um vídeo tocando Nosferatu e nos envie!

    00:00 / 00:00
    Outros vídeos desta música
    Repetir Qualidade Automático
    Outros vídeos desta música
    00:00 / 00:00
    Automático

    Cifra Club Pro

    Aproveite o Cifra Club com benefícios exclusivos e sem anúncios
    Cifra Club Pro
    Aproveite o Cifra Club com benefícios exclusivos e sem anúncios
    OK