Cifra Club

Aprenda

Take Me Away

Blue Öyster Cult

Cifra: Principal (violão e guitarra)
tom: F
Intro/Main Riff:

E|--------------------------------|
B|--------------------------------|
G|--------------------------------|
D|-----3-1~-----------------------|
A|--------------1~----1---1-3-1---|
E|-1-1--------4-----4---4-------4-|

E|--------------------------------|
B|--------------------------------|
G|--------------------------------|
D|-----3-1~-----------------------|
A|--------------1~----1---1-3-1---|
E|-1-1--------4-----4---4-------4-|

E|--------------------------------|
B|--------------------------------|
G|--------------------------------|
D|-----3-1~-----------------------|
A|--------------1~----1---1-3-1---|
E|-1-1--------4-----4---4-------4-|

E|--------------------------------|
B|--------------------------------|
G|--------------------------------|
D|-----3-1~-----------------------|
A|--------------1~----1---1-3-1---|
E|-1-1--------4-----4---4-------4-|


     F5         G#5          Bb5    G#5
        Strange shapes light up the night

     F5            G#5               Bb5    G#5
        I've never seen 'em though I hope I might
 
     F5       G#5    Bb5      G#5
        Don't ask if they are real

     F5            G#5  Bb5     G#5
        The men in black, their lips are sealed

Passagem:

E|--------------------------------|
B|--------------------------------|
G|--------------------------------|
D|-----3-1~-----------------------|
A|--------------1~----1---1-3-1---|
E|-1-1--------4-----4---4-------4-|

E|--------------------------------|
B|--------------------------------|
G|--------------------------------|
D|-----3-1~-----------------------|
A|--------------1~----1---1-3-1---|
E|-1-1--------4-----4---4-------4-|

     
     F5      G#5 Bb5     G#5
        Fantasy fills my mind
        
     F5               G#5     Bb5     G#5
        To leave this place before my time
        
     F5           G#5       Bb5     G#5
        Release myself from earthly care
        
     F5    G#5       Bb5 G#5
        My dream may be your nightmare

Passagem:

E|--------------------------------|
B|--------------------------------|
G|--------------------------------|
D|-----3-1~-----------------------|
A|--------------1~----1---1-3-1---|
E|-1-1--------4-----4---4-------4-|

E|--------------------------------|
B|--------------------------------|
G|--------------------------------|
D|-----3-1~-----------------------|
A|--------------1~----1---1-3-1---|
E|-1-1--------4-----4---4-------4-|


          F5      G#5      Bb5      (G#5 Bb5)
        I turn my hopes up to the sky

            F5      G#5      Bb5      (G#5 Bb5)
        I'd like to know before I die

     F5      G#5      Bb5      (G#5 Bb5)
        Memories will slowly fade

          F5      G#5      Bb5
        I lift my eyes and say

                (G#5 Bb5)
        Come on take me away

E|--------------------------------|
B|--------------------------------|
G|--------------------------------|
D|-----3-1~-----------------------|
A|--------------1~----1---1-3-1---|
E|-1-1--------4-----4---4-------4-|

        Come on take me away

E|--------------------------------|
B|--------------------------------|
G|--------------------------------|
D|-----3-1~-----------------------|
A|--------------1~----1---1-3-1---|
E|-1-1--------4-----4---4-------4-|


     F5      G#5       Bb5      G#5
        Come here girl close to me
     
     F5            G#5        Bb5      G#5
        A thousand stars your eyes can see
     
     F5       G#5    Bb5   G#5
        First one we see tonight

     F5          G#5   Bb5    G#5
        I wish I may I wish I might


          F5      G#5      Bb5      (G#5 Bb5)
        I turn my hopes up to the sky

            F5      G#5     Bb5      (G#5 Bb5)
        I'd like to know before I die

     F5      G#5      Bb5     (G#5 Bb5)
        Memories will slowly fade

          F5      G#5      Bb5
        I lift my eyes and say

                (G#5 Bb5)
        Come on take me away

E|--------------------------------|
B|--------------------------------|
G|--------------------------------|
D|-----3-1~-----------------------|
A|--------------1~----1---1-3-1---|
E|-1-1--------4-----4---4-------4-|

        Come on take me away

E|--------------------------------|
B|--------------------------------|
G|--------------------------------|
D|-----3-1~-----------------------|
A|--------------1~----1---1-3-1---|
E|-1-1--------4-----4---4-------4-|


Solo: Improvise! Escala: Fm


          F5      G#5      Bb5      (G#5 Bb5)
        I turn my hopes up to the sky

            F5      G#5    Bb5      (G#5 Bb5)
        I'd like to know before I die

     F5      G#5      Bb5     (G#5 Bb5)
        Memories will slowly fade

          F5      G#5      Bb5
        I lift my eyes and say

                (G#5 Bb5)
        Come on take me away

          F5      G#5      Bb5
        I lift my eyes and say

                (G#5 Bb5)
        Come on take me away

          F5      G#5      Bb5
        I lift my eyes and say

                (G#5 Bb5)
        Come on take me away

          F5      G#5      Bb5
        I lift my eyes and say

                (G#5 Bb5)
        Come on take me away

          F5      G#5      Bb5
        I lift my eyes and say

                (G#5 Bb5)
        Come on take me away

Final:

E|--------------------------------|
B|--------------------------------|
G|--------------------------------|
D|-----3-1~-----------------------|
A|--------------1~----1---1-3-1---|
E|-1-1--------4-----4---4-------4-|

E|--------------------------------|
B|--------------------------------|
G|--------------------------------|
D|-----3-1~-----------------------|
A|--------------1~----1---1-3-1---|
E|-1-1--------4-----4---4-------4-|

E|--------------------------------|
B|--------------------------------|
G|--------------------------------|
D|-----3-1~-----------------------|
A|--------------1~----1---1-3-1---|
E|-1-1--------4-----4---4-------4-|

E|--------------------------------|
B|--------------------------------|
G|--------------------------------|
D|-----3-1~-----------------------|
A|--------------1~----1---1-3-1---|
E|-1-1--------4-----4---4-------4-|

E|---------------------------------|
B|---------------------------------|
G|-3-1-----------------------------|
D|-----3-1-3-1---------------------|
A|--------------3-----1------------|
E|-----------------3~---1----------|
Composição de A. Nova / E. Bloom
Colaboração e revisão:
  • Luis Tomazelli
128 exibições
    • ½ Tom
    • A
    • Bb
    • B
    • C
    • Db
    • D
    • Eb
    • E
    • F
    • F#
    • G
    • Ab
  • Adicionar à lista

    0 comentários

    Ver todos os comentários

    Conseguiu tocar?

    0 Tocaram 0 Ainda não

    Grave um vídeo tocando Take Me Away e nos envie!

    00:00 / 00:00
    Outros vídeos desta música
    Repetir Qualidade Automático
    Outros vídeos desta música
    00:00 / 00:00
    Automático

    Cifra Club Pro

    Aproveite o Cifra Club com benefícios exclusivos e sem anúncios
    Cifra Club Pro
    Aproveite o Cifra Club com benefícios exclusivos e sem anúncios
    OK