Transmaniacon Mc

Blue Öyster Cult

Composição de: Albert Bouchard / Donald Roeser / Eric Bloom / Sandy Pearlman
tom: C
Transmaniacon MC
Tabbed by: Chad Underwood
Guitar used: Gibson Les Paul       Drop "D" tuning

intro:                  you need to play this part real fast

---------------------------------------------------------------------|
---------------------------------------------------------------------|
--x-x-7-x-x-7--------------------------------------------------------|
--x-x-7-x-x-7-----------7-6---5-4------------------------------------|
--x-x-5-x-x-5-repeat--0-----7-----5-4--8-7-----5-4-------------------|
-------------------------------------------8-7-----5-4---------------|
Verse:
------------------------------------------------------------------|
----------------------------------8-7-6-5-------------------------|
------------------------------------------8-7-6-5-----------------|
----7--5--3--0--3-------------------------------------------------|
-----7--5--3--0-5-------------------------------------------------|
------------------------------------------------------------------|
            This song will build up your accuracy and you can
            play it for your friends and look like a pro.

                     B.O.C. rocks the house
Página 1 / 1

Letras e título
Acordes e artista

resetar configurações
OK