Cifra Club

Aprenda

Jail House Rock

The Blues Brothers

Tab de baixo: Principal
Tabbed By : 
e-mail: 

Tuning:normal
first verse
G|---------------------------------------------------------------------------|
D|---------------------------------------------------------------------------|
A|---------------------------------------------------------------------------|
E|4h5--------------------------------4h5-------------------------------------|
  (1st line)                       (2nd line)                 
G|---------------------------------------------------------------------------|
D|---------------------------------------------------------------------------|
A|---------------------------------------------------------------------------|
E|4h5------------------------------4h5---------------------------------------|
  (3rd line)                       (4th line)
  chorus
G|------4-------------------7------------------------------------------------|
D|--4-7---------4-------6-9--------------------------------------------------|
A|5-----------4-7-----7------------------------------------------------------|
E|-----------5---------------------------------------------------------------|

play chorus every chorus and verse fore every verse by the way the chorus covera ALL  of the song


| /  slide up
| \  slide down
| h  hammer-on
| p  pull-off
| ~  vibrato
| +  harmonic
| x  Mute note
Compositor não encontrado.
2.151 exibições

0 comentários

Ver todos os comentários

Conseguiu tocar?

0 Tocaram 0 Ainda não

Grave um vídeo tocando Jail House Rock e nos envie!

00:00 / 00:00
Outros vídeos desta música
Repetir Qualidade Automático
Outros vídeos desta música
00:00 / 00:00
Automático

Cifra Club Pro

Aproveite o Cifra Club com benefícios exclusivos e sem anúncios
Cifra Club Pro
Aproveite o Cifra Club com benefícios exclusivos e sem anúncios
OK