Cifra Club

Aprenda

Sweet Home Chicago

The Blues Brothers

Tab de baixo: Versão 2


*
blues_brothers
TablEdited by poppamies
Tuning : E A D G 	Time Signature: 4/4

 tempo 126       |       |        |       |       |       |        
|--------------------------------|--------------------------------|
|--------------------------  I N T R O  --------------------------|
|--------------------------------|--------------------------------|
|--------------------------------|--------------------------------|

 |       |       |       |        |       |       |       |        
|--------------------------------|--------------------------------|
|--------------------------------|--------------------------------|
|--------------------------------|----0---1---2-------------------|
|--------------------------------|--------------------------------|

 |       |       |       |        |       |       |       |        
|--------------------------------|--------------------------------|
|--------------------------------|--------4---4---2---2-----------|
|--------4---4---2---2-------2---|0-----------------------4---2---|
|0-----------------------4-------|--------------------------------|

 |       |       |       |        |       |       |       |        
|--------------------------------|--------------------------------|
|--------------------------------|--------------------------------|
|--------4---4---2---2-----------|--------4---4---2---2-------2---|
|0-----------------------4-------|0-----------------------4-------|

 |       |       |       |        |       |       |       |        
|--------------------------------|--------------------------------|
|--------4---4---2---2-----------|--------4-------2---------------|
|0-----------------------4---4---|0-----------------------4-------|
|--------------------------------|--------------------------------|

 |       |       |       |        |       |       |       |        
|--------------------------------|--------------------------------|
|--------------------------------|--------------------------------|
|--------4---4---2---2-----2-4---|--------4---4---2---2-----2-4---|
|0-----------------------4-------|0-----------------------4-------|

 |       |       |       |        |       |       |       |        
|--------1-----------------------|--------------------------------|
|----------------4-------1-------|--------4-------2---------------|
|2---------------------------4---|0-----------------------4-2-----|
|--------------------------------|----------------------------4---|

 |       |       |       |        |       |       |       |        
|--------------------------------|--------------------------------|
|--------------------------------|--------------------------------|
|--------4---4---2---2-----------|----0---1---2-------2---4-2-----|
|0-----------------------4---4---|0---------------------------4---|

 |       |       |       |        |       |       |       |        
|--------------------------------|--------------------------------|
|--------------------------------|--------4-------2---------------|
|--------4-------2---------2-4---|0-----------------------4---2---|
|0-----------------------4-------|--------------------------------|

 |       |       |       |        |       |       |       |        
|--------------------------------|--------------------------------|
|--------------------------------|--------------------------------|
|--------4---4---2-----------2---|--------4-------2-----------2---|
|0-----------------------4-------|0-----------------------4-------|

 |       |       |       |        |       |       |       |        
|--------------------------------|--------------------------------|
|--------4-------2---2-----------|--------4-------2---------------|
|0-----------------------4---4---|0---0-------------------4---4---|
|--------------------------------|--------------------------------|

 |       |       |       |        |       |       |       |        
|--------------------------------|--------------------------------|
|--------------------------------|--------------------------------|
|--------4---4---2---------2-4---|--------4-------2---------2-4---|
|0-----------------------4-------|0-----------------------4-------|

 |       |       |       |        |       |       |       |        
|--------------------------------|--------------------------------|
|--------4/--6---4-------1-------|--------4-------2---------2-4---|
|2-------------------------------|0-----------------------4-------|
|--------------------------------|--------------------------------|

 |       |       |       |        |       |       |       |        
|--------------------------------|--------------------------------|
|--------------------------------|--------------------------------|
|--------4-------2---------2-4---|----0---1---2-------2---2-2-----|
|0---0-------------------4-------|0---------------------------4---|

 |       |       |       |        |       |       |       |        
|--------------------------------|--------------------------------|
|--------------------------------|--------------------------------|
|--------------------------------|--------------------------------|
|0-------------------------------|0-------------------------------|

 |       |       |       |        |       |       |       |        
|--------------------------------|--------------------------------|
|--------------------------------|--------------------------------|
|--------------------------------|0-------------------------------|
|0-------------------------------|----0---2-------2-2-2---4-2-0---|

 |       |       |       |        |       |       |       |        
|--------------------------------|--------------------------------|
|--------4---4---2-------4---2---|4/--5---4-------2---------------|
|0-------------------------------|------------------------4---2---|
|--------------------------------|--------------------------------|

 |       |       |       |        |       |       |       |        
|--------------------------------|--------------------------------|
|--------------------------------|--------------------------------|
|--------4---4---2-------4---4---|--------4-------2-------4---0---|
|0-------------------------------|0-------------------------------|

 |       |       |       |        |       |       |       |        
|--------------------------------|--------------------------------|
|--------1-------4-------1-------|--------4-------2---------2-4---|
|2---------------------------4---|0-----------------------4-------|
|--------------------------------|--------------------------------|

 |       |       |       |        |       |       |       |        
|----------------4---------4-6---|--------6-------4-------1-------|
|2-------4/--6-----------6-------|2---------------------------4---|
|--------------------------------|--------------------------------|
|--------------------------------|--------------------------------|

 |       |       |       |        |       |       |       |        
|--------------------------------|--------------------------------|
|2---2---0-----------------------|----------------0-------1-------|
|----------------4-------2-------|0---0---4-----------------------|
|--------------------------------|--------------------------------|

 |       |       |       |        |       |       |       |        
|----------------4-------1-------|--------4/--6---4---------------|
|2-------4/--6---------------4---|2-----------------------6/--2---|
|--------------------------------|--------------------------------|
|--------------------------------|--------------------------------|

 |       |       |       |        |       |       |       |        
|--------------------------------|--------------------------------|
|----------------2---------------|----------------0-------1-------|
|0-------4---------------4---4---|0-------4-----------------------|
|--------------------------------|--------------------------------|

 |       |       |       |        |       |       |       |        
|----------------4---------------|--------4/--6---4---------------|
|2-------4/--6-----------6---4---|2-----------------------6/--4---|
|--------------------------------|--------------------------------|
|--------------------------------|--------------------------------|

 |       |       |       |        |       |       |       |        
|--------------------------------|--------------------------------|
|--------1-----------------------|----------------0---------2-4---|
|2---------------2-------1-------|0-------4---------------4-------|
|--------------------------------|--------------------------------|

 |       |       |       |        |       |       |       |        
|--------------------------------|--------------------------------|
|--------------------------------|--------------------------------|
|--------4-------2-------4-------|----0---1---2-------2---4-2-----|
|0-------------------------------|0---------------------------4---|

 |       |       |       |        |       |       |       |        
|--------------------------------|--------------------------------|
|--------------------------------|--------------------------------|
|--------4-------2---------------|--------4-------2---------2-4---|
|0---0-------------------4-------|0-----------------------4-------|

 |       |       |       |        
|---------------and so on....----|
|--------------------------------|
|--------4-------2---------2-4---|
|0-----------------------4-------|


Created with TablEdit http://*


Taken from The Bass Tab Archive ~ http://*
Composição de Leon Russell / Marc Benno / Robert Johnson / Robert Leroy Johnson
854 exibições

0 comentários

Ver todos os comentários

Conseguiu tocar?

0 Tocaram 0 Ainda não

Grave um vídeo tocando Sweet Home Chicago e nos envie!

00:00 / 00:00
Outros vídeos desta música
Repetir Qualidade Automático
Outros vídeos desta música
00:00 / 00:00
Automático

Cifra Club Pro

Aproveite o Cifra Club com benefícios exclusivos e sem anúncios
Cifra Club Pro
Aproveite o Cifra Club com benefícios exclusivos e sem anúncios
OK