Song 2

Blur

Composição de: Alex James / Damon Albarn / Dave Rowntree / Graham Coxon
tom: C
 Tabbed by Alvaro Patron,A*.
  
TABED BY:Alvaro Patron
TAB FOR:Guitar

Tune yor guitar droped D:Low To High :D A D G B E.


E---------------------------------------------------------
B---------------------------------------------------------
G--10-10--8-8--13-13--17-17--17-17-17---------------------
D--10-10--8-8--13-13--17-17--17-17-17---------------------
A--8-8----6-6--11-11--15-15--15-15-15---------------------
D---------------------------------------------------------


Heavy Distortion

E---------------------------------------------------------
B---------------------------------------------------------
G---------------------------------------------------------
D--3-3--1-1-6-6-8-10--10-10-10----------------------------
A--3-3--1-1-6-6-8-10--10-10-10----------------------------
D--3-3--1-1-6-6-8-10--10-10-10----------------------------

That`s all you keep play the intro and the other part and you get it.
enjoy!!!!!!!!! 
:: Ultimate Guitar Archive :: 
http://* 



Página 1 / 1

Letras e título
Acordes e artista

resetar configurações
OK