Diddy Wah Diddy

Bo Diddley

Composição de: Bo Diddley / Mário De Vasconcelos Sá
tom: E Afinação: E A D G B E
E|-----------------|
B|-----------------|
G|-----------------|
D|-----------------|
A|--2(b)-----------| (very slight bend)
E|-------0---------|

[Intro]
  A G E A G E
  A G E A G E
          A G E A G E
(Diddy Wah)

(Diddy Wah)
E|--------------------------------------|
B|--------------------------------------|
G|---2(b)---2(b)-----2(b)-2(b)-2(b)-----|
D|--------------------------------------|
A|--------------------------------------|
E|--------------------------------------|

[Verse 1]
              A    G   E       A     G   E
(Diddy Wah)I gotta gal down in Diddy Wah Diddy

            A     G  E          A     G  E
(Diddy Wah) Ain't no town an it ain't no city
 
           A   G         E         A  G E
(Diddy Wah)She loves her man, just is a pity
            NC
(Diddy Wah) Crazy 'bout my gal in Diddy Wah Diddy
  A G E  A G E
  A G E  A G E
  A G E  A G E
E|--------------------------------------|
B|--------------------------------------|
G|---2(b)---2(b)-----2(b)-2(b)-2(b)-----|
D|--------------------------------------|
A|--------------------------------------|
E|--------------------------------------|

[Verse 2]
           A      G    E        A    G            E
(Diddy Wah)This little girl is sweet as she could be
           A G    E        A    G    E
(Diddy Wah)I know she's in love with me
           A G      E     A     G  E
(Diddy Wah)A lovely face, she's so pretty
           NC
(Diddy Wah)But she's lives way down in Diddy Wah Diddy

             A  G E A    G E
 (Diddy Wah,  Diddy Wah, Diddy)
             A  G E A    G E
 (Diddy Wah,  Diddy Wah, Diddy)
             A  G E A    G E
 (Diddy Wah,  Diddy Wah, Diddy)

[Chorus]
E                         E
Ain't no town,      an it ain't no city
NC
But oh, how they love in Diddy Wah Diddy

[Chorus]

            A G E A G E
(Diddy Wah)
            A G E A G E
(Diddy Wah)
            A G E A G E
(Diddy Wah)

E|--------------------------------------|
B|--------------------------------------|
G|---2(b)---2(b)-----2(b)-2(b)-2(b)-----|
D|--------------------------------------|
A|--------------------------------------|
E|--------------------------------------|

[Verse 3]

           A   G      E  A   G   E
(Diddy Wah)She kissed me all the time
           A   G     E        A     G  E
(Diddy Wah)She gonna drive me outta my mind
           A  G     E A   G          E
(Diddy Wah)Anything,  she says she's ready
           NC
(Diddy Wah)Headed right back to Diddy Wah Diddy

[Chorus]
            A G E A G E
(Diddy Wah)
            A G E A G E
(Diddy Wah)
            A G E A G E
(Diddy Wah)

(Diddy Wah)

E|--------------------------------------|
B|--------------------------------------|
G|---2(b)---2(b)-----2(b)-2(b)-2(b)-----|
D|--------------------------------------|
A|--------------------------------------|
E|--------------------------------------|

[Break]
E               E
Ain't no town,  ain't no city
NC
Lord, how they love in Diddy Wah Diddy

[Outro]
            A G E A G E
(Diddy Wah)
            A G E A G E
(Diddy Wah)
            A G E A G E
(Diddy Wah)
Página 1 / 1

Letras e título
Acordes e artista

resetar configurações
OK