Cifra Club

Musica do Fim

Bob Esponja

Cifra: Principal
exibições 57.416
Tom: E
violão 1 = "baixo/base"
violão 2 = solo

(introdução)

violão 1
    1   e   2   e   3   e   4   e   5   e   6   e   7   e   8   e
E|------------------------------------------------------------------|
B|------------------------------------------------------------------|
G|------------------------------------------------------------------|
D|------x---9~----------9---9~----------9---9~----------9---9-------|
A|--7---------------7---------------7---------------7---------------|
E|------------------------------------------------------------------|

violão 2

- silêncio

(parte 1)

violão 1

    1   e   2   e   3   e   4   e   5   e   6   e   7   e   8   e
E|------------------------------------------------------------------|
B|------------------------------------------------------------------|
G|------------------------------------------------------------------|
D|------x---9~----------9---9~----------9---9~----------9-9-9-------|
A|--7---------------7---------------7---------------7---------------|
E|------------------------------------------------------------------|

violão 2

    1   e   2   e   3   e   4   e   5   e   6   e   7   e   8   e
E|--7-6-7-9-7-----------------------7-6-7-9-7-----------------------|
B|------------------------------------------------------------------|
G|------------------------------------------------------------------|
D|------------------------------------------------------------------|
A|------------------------------------------------------------------|
E|------------------------------------------------------------------|

(parte 2)

violão 1

    1   e   2   e   3   e   4   e   5   e   6   e   7   e   8   e
E|------------------------------------------------------------------|
B|------------------------------------------------------------------|
G|------------------------------------------------------------------|
D|----------9~------9~----------9-------9---9~--9~--9~------9/------|
A|--7-----------------------7-------7-------------------------------|
E|------------------------------------------------------------------|
                                                                       x= tocar e abafar rapidamente
violão 2

    1   e   2   e   3   e   4   e   5   e   6   e   7   e   8   e
E|--7-6-7-9-7-----------------------7-6-7-9-7-----------------------|
B|------------------------------------------------------------------|
G|------------------------------------------------------------------|
D|------------------------------------------------------------------|
A|------------------------------------------------------------------|
E|------------------------------------------------------------------|

(parte 3)

violão 1

    1   e   2   e   3   e   4   e   5   e   6   e   7   e   8   e
E|------------------------------------------------------------------|
B|------------------------------------------------------------------|
G|----------8~--------------8~--------------8~----------------------|
D|--9~--------------9~--------------9~--------------9----------9-9--|
A|----------------------------------------------------------7-------|
E|------------------------------------------------------------------|

violão 2 (nesse riff não consegui fazer perfeitamente)

    1   e   2   e   3   e   4   e   5   e   6   e   7   e   8   e
E|-----14----14----14----14----14----14----14----14-12------7/------|
B|---12----12----12----12----12----12----12----12---12------9/------|
G|-11----11----11----11----11----11----11----11---------------------|
D|------------------------------------------------------------------|
A|------------------------------------------------------------------|
E|------------------------------------------------------------------|

(parte 4)

violão 1

    1   e   2   e   3   e   4   e
E|----------------------------------|
B|----------------------------------|
G|----------------------------------|
D|------9---9~--------------9~------|
A|--7---------------7---------------|
E|----------------------------------|

violão 2

    1   e   2   e   3   e   4   e
E|--7-6-7-9-7-------7/------7/------|
B|------------------9/------9/------|
G|----------------------------------|
D|----------------------------------|
A|----------------------------------|
E|----------------------------------|

(parte final 1)

violão 1

    1     e     2     e     3     e     4     e     5     e     6     e     7     e     8     e
E|-----------------------------------------------------------------------------------------------|
B|--------------------------7-----7-----7-----------------------------------7-----7-----7--------|
G|--------------------------5-----5-----5-----------------------------------5-----5-----5--------|
D|--------9-----9x----------7-----7-----7-----------------9-----9x----------7-----7-----7--------|
A|--7-----------------------------------------------7--------------------------------------------|
E|-----------------------------------------------------------------------------------------------|

violão 2

    1     e     2     e     3     e     4     e     5     e     6     e     7     e     8     e
E|--7/----12x---12x--------14-16-14-16-14-----------------12x---12x---------14-15-15----15-14-12-|
B|--9/----12x---12x--------13-13-13-13-13-----------------12x---12x---------13-14-14----14-13-12-|
G|-------------------------14-14-14-14-14--------------------------------------------------------|
D|-----------------------------------------------------------------------------------------------|
A|-----------------------------------------------------------------------------------------------|
E|-----------------------------------------------------------------------------------------------|

(parte final 2)

violão 1

    1     e     2     e     3     e     4     e     5     e     6     e     7     e     8
E|-----------------------------------------------------------------------------------------|
B|-----------------------------------------------------------------------------------------|
G|--------------------------------------8--------------------------------------------------|
D|--------9-----9-----------9-----------------------------------9--------------------------|
A|--7-----------------------------------------------7-----------------------7~~~~~~~~~-----|
E|-----------------------------------------------------------------------------------------|

violão 2

    1     e     2     e     3     e     4     e     5     e     6     e     7     e     8
E|--7--6--7--9--6/7---------7--6--7--9--6/7---------11----11b----------------------------|
B|-----------------------------------------------------------------------------------------|
G|-----------------------------------------------------------------------------------------|
D|-----------------------------------------------------------------------------------------|
A|-----------------------------------------------------------------------------------------|
E|-----------------------------------------------------------------------------------------|
Acordes para:
    Colaboração e revisão:

    0 comentários

      mostrar mais comentários

      Conseguiu tocar?

      9tocaram2ainda não

      Grave um vídeo tocando Musica do Fim e mande pra gente!

      00:00 / 00:00
      outros vídeos desta música
      repetirqualidadeautomática
      Outro vídeos desta música
        00:00 / 00:00
        automática
        OK