Notificações Amigos pendentes

      Bob Marley

      All day All night

      3.420 exibições
      Introdução 
       
      |------------10--9--10-| 
      |11--10--11------------| 
      |----------------------| 
      |----------------------| 
       
      |---------------------| 
      |7--7---5--7----------| 
      |-----7-------7--7----| 
      |-------------------5-| 
       
       
      |-------------------------| 
      |5--5-------5--3------3---|  2X 
      |------5--7-------3-5---5-| 
      |-------------------------| 
       
      |-----------------------| 
      |-(2)?(2)----3------3---| 
      |---------2-----3-5---5-| 
      |-----------------------| 
       
      |-----------------| 
      |-2?-----2------5-| 
      |-------2--2------| 
      |-----------------| 
       
       
       
      Obs.: O ?()? quer dizer *Seco*
        Composição: Bob Marley / Lee Scratch PerryColaboração e revisão:
        • Shadowblind

        Comentários 0

        140 .
        140 cancelar

        conseguiu tocar?

        covers

        Grave um vídeo tocando All day All night e mande pra gente!

        Ex.: http://www.youtube.com/watch?v=0IvSvIwGdwk
        ver covers de outras músicas »
        0:00 / 0:00

        Capítulos

          1 versão de violão dificuldade exibições contribuição e correção
          1 versão de guitarra dificuldade exibições contribuição e correção
          1 versão de cavaco dificuldade exibições contribuição e correção
          1 versão de teclado dificuldade exibições contribuição e correção
          1 versão de baixo exibições contribuição e correção
          play/pausefechar subir/descer velocidade
          6ª corda E5ª corda A4ª corda D3ª corda G2ª corda B1ª corda E
            acordes
            publicidade
            fechar
            ok