Lively Up Yourself

Bob Marley

Composição de: Bob Marley
INTRO(REPETE 2vezes)
G------------------------
D-----------3-5----------
A---3-5---5--------3-5---
E-5--------------5-------

REFRÃO(4VEZES)
G------------------------------------------
D------------------------------------------
A----4-5-5-5---7-5-3------3-5-5------------
E--5-----------------3--5------------------

INTRO(4vezes)
REFRÃO(4vezes)
INTRO(4vezes)
REFRÃO(8vezes, sendo as 4 últimas sem vocal)
INTRO(4x)
REFRÃO(2vezes)


G-------------------5---- \
D-------3/5-5-5-5-7------  \2X
A-5-------------------5--  /
E------------------------ /

G---5-7-5---7-- \
D-7-------7----  \4X
A--------------  /
E-------------- /

INTRO(4X)
REFRÃO(4x)
Página 1 / 1

Letras e título
Acordes e artista

resetar configurações
OK