Cifra Club

Always

Bon Jovi

Cifra: Versão 3 (violão e guitarra)
tom: E
[Intro] E  A9  C#m  B  A9   

E|---------------------|
B|-7--9--10--9--7--5-5-|
G|---------------------| (2x)
D|---------------------|
A|---------------------|
E|---------------------|

[Primeira Parte]

C#m                       B
    This romeo is bleeding but you can't see his blood
A9                                              G#m7          B
   It's nothing but some feelings that this old dog kicked up
C#m                                               B
    It's been raining since you left me now I'm drowning in the flood
A9                                           G#m7             A B
   You see I've always been a fighter but without you I give up
C#m7                                         B/D#
     Now I can't sing a love song like the way it's meant to be
          A/E                              B/F#               A B
Well, I guess I'm not that good anymore but baby, that's just me

[Refrão]

      E       B
Yeah, I will love you
 F#m C#m B
Baby always
    E                B           A9  C#m7 B
And I'll be there forever and a day  always

E                                                  B/F#
I'll be there till the stars don't shine till the heavens burst and the words don't rhyme
             A                                        B       
And I know when I die, you'll be on my mind and I'll love you
A  B 
Always

( C#m7  A9 )

E|---------------------|
B|-7--9--10--9--7--5-5-|
G|---------------------|
D|---------------------|
A|---------------------|
E|---------------------|

[Segunda Parte]

            C#m                                    B
Now you're pictures that you left behind are just memories of a

Different life
           A9                                            G#m7
Some that made us laugh, some that made us cry one that made you
                 B
Have to say goodbye
          C#m                                         B
What I'd give to run my fingers through your hair to touch your

Lips, to hold you near
          ​A9                                      G#m7
When you say your prayers try to understand I've made mistakes, I'm
  ​A    B
Just a man
         ​C#m7                                           B/D#
When he holds you close when he pulls you near when he says the words you've been needing to hear
    ​       A/E                                       B/F#
 A'll wish I was him `cause those words are mine to say to you till
    A       B
The end of time

[Refrão]

       E      B
Yeah, I will love you
 ​F#m C#m B
Baby always
    E                B           A9  C#m7 B
And I'll be there forever and a day  always

[Ponte]

D                   G            A
If you told me to cry for you I could
D                  G       A
If you told me to die for you
   ​Bm          Bm/A         G
I would take a look at my face
            ​D/F#          A9   
There's no price I won't pay to say these words to you

[Solo] E  B  F#m7  C#m7  B 
       E  B/F#  A  B  A  B

E|---------------------------------------------------------------------------------------|
B|---------------------------------------------------------------------------------------|
G|---------------------------------------------------------------------------------------|
D|-----9h11--------9h11--------------------------------2-4--2~------2-4--2-----2-4-4-2---|
A|-11--------11---------11~---9--7--9--------------2-4--------4-2-4--------4-2-----------|
E|------------------------------------7-7~-------4---------------------------------------|

E|---------------------12--12/9-9/7-7/12-12/9-9/7-7--------------------------------12----|
B|------------------12b---------------------------------------------12b---------14-12-14-|
G|----------------------------------------------------11--11-9--11~----------13----------|
D|-------2-4-4-2-4~---------------------------------0----------------------9-------------|
A|-4~-4~----------------------------------------------------------------11---------------|
E|---------------------------------------------------------------------------------------|

E|-12-------12-------12-12-12-12----------12-14r14-12--14~----16b---14--12---------------|
B|-14-12----14-12----12-14-14-12----12-14-----------------------------------14-----------|
G|-------13-------13-------------13------------------------------------------------------|
D|---------------------------------------------------------------------------------------|
A|---------------------------------------------------------------------------------------|
E|---------------------------------------------------------------------------------------|

[Terceira Parte]

            ​A                                       B
Well, there ain't no luck in these loaded dice but baby if you give me just one more try
        A/C#                                           B/D#  
We can pack up our old dreams and our old lives we'll find a place
           A          B
Where the sun still shines

[Refrão]

       E      B
Yeah, I will love you
 ​F#m C#m B
Baby always
    E                B           A9  C#m7 B
And I'll be there forever and a day  always

E                                                  B/F#
I'll be there till the stars don't shine till the heavens burst and the words don't rhyme
             A                                        B       
And I know when I die, you'll be on my mind and I'll love you
A  B 
Always

[Final] E  B  C#m7  B  A
        E  B  C#m7  B  A
        E  B  C#m7  B  A
        E  B  C#m7  B  A

E|-9b---24h21----24h21----24h21----24h21---------------------------------7-12-19---------|
B|------------22-------22-------22-------22----------------------------9-----------------|
G|-------------------------------------------------------------------9-------------------|
D|--------------------------------------------------18-------------9---------------------|
A|--------------------------------------------19r--------19/----11-----------------------|
E|-----------------------------------------------------------12--------------------------|

E|-16------16--17h17b--17h17----17----16-------------------------------------------------|
B|---------------------------17----17----17----------------------------------------------|
G|------------------------------------------18/19-18----16h14----14h13-------------------|
D|---------------------------------------------------18-------14-------------------------|
A|---------------------------------------------------------------------------------------|
E|---------------------------------------------------------------------------------------|

E|-------------------------------------------------------------4-7-12-19-----------------|
B|----------------------------------------------9---x--------5---------------------------|
G|-----------------------------------------9~-------x------4-----------------------------|
D|-14~---11----11----11----------11----11----------------6-------------------------------|
A|----------12----12----12-12-12----12-----------------7---------------------------------|
E|---------------------------------------------------------------------------------------|

E|-16b--------16--17-17--17-17----17----16-----------------------------------------------|
B|-----------------------------17----17----17--------------------------------------------|
G|--------------------------------------------18h19h18----16h14----14h13-----------------|
D|-----------------------------------------------------18-------14-----------------------|
A|---------------------------------------------------------------------------------------|
E|---------------------------------------------------------------------------------------|

E|---------------------------------------------------------------------------------------|
B|---------------------------------------------------------------------------------------|
G|---------------------------------------------------------------------------------------|
D|-14----11----11----11----------11----11------------------------------------------------|
A|----------12----12----12-12-12----12---------------------------------------------------|
E|---------------------------------------------------------------------------------------|
00:00 / 00:00
Outros vídeos desta música
Repetir
Outros vídeos desta música
Composição de Jon Bon Jovi
Colaboração e revisão:
  • Matheus Costa
  • Marlon Grando
192.793 exibições
    • ½ Tom
    • A
    • Bb
    • B
    • C
    • Db
    • D
    • Eb
    • E
    • F
    • F#
    • G
    • Ab
  • Adicionar à lista

    0 comentários

    Ver todos os comentários

    Entre para oCifra Club PRO

    Tenha acesso a benefícios exclusivos no App e no Site

    • Chega de anúncios

    • Prioridade de compra em lançamentos

    • Mais recursos no app do Afinador

    • Atendimento Prioritário

    • Descontos nos produtos Cifra Club

    • Ajude a produzir mais conteúdo

    00:00 / 00:00
    Capítulos
    • Tocando a música
    • Configuração do Efeito
    • Acordes da Introdução
    • Dicas iniciais / Equipamentos
    • Tocando Introdução
    • Introdução (Base)
    • Introdução (Riff)
    • Acordes da Primeira Parte - Refrão
    • Tocando Primeira Parte - Refrão
    • Primeiro Refrão (Base)
    • Acordes Segunda Parte
    • Tocando Segunda Parte
    • Segunda Parte (Base)
    • Segunda Parte (Riff)
    • Tocando Segundo Refrão
    • Segundo Refrão (Base)
    • Acordes da Ponte
    • Tocando Ponte
    • Ponte (Base)
    • Ponte (Riff)
    • Dicas Solo
    • Tocando Solo
    • Solo - Parte 1 de 5
    • Solo - Parte 2 de 5
    • Solo - Parte 3 de 5
    • Solo - Parte 4 de 5
    • Solo - Parte 5 de 5
    • Solo Completo
    • Terceira Parte - Final
    • Tocando Terceira Parte - Final
    • Terceira Parte (Base)
    • Solo Final - Parte 1 de 8
    • Solo Final - Parte 2 de 8
    • Solo Final - Parte 3 de 8
    • Solo Final - Parte 4 de 8
    • Solo Final - Parte 5 de 8
    • Solo Final - Parte 6 de 8
    • Solo Final - Parte 7 de 8
    • Solo Final - Parte 8 de 8
    • Solo Final
    • Encerramento
    • Ficha Técnica / Erros de gravação

    Cifra Club Pro

    Aproveite o Cifra Club com benefícios exclusivos e sem anúncios
    Cifra Club Pro
    Aproveite o Cifra Club com benefícios exclusivos e sem anúncios
    OK