Cifra Club

Any Other Day

Bon Jovi

Cifra: Principal (violão e guitarra)
Tom: C#
(intro) C#sus2   F#  (G#)  Bbm  (Ebm)  G#

e|------------------------------------------|
b|------------------------------------------|
g|---10~~~~--10/3~~~~----5/6~~~~--8/5~~~~---|
d|---------------------------~--------------|
a|------------------------------------------|
e|------------------------------------------|

(verse)
C#sus2
The alarm clock rings its 6:45
       F#
Must have hit that snooze button least three times
    Bbm
I'm wishing this morning was still last night
   G#
On any other day, just might wanna die

C#sus2
Traffic packed up twenty miles to the east
         F#
Must have heated the damned red light on the street
(G#) Bbm
The weatherman says it's gonna rain for a week
(Ebm) G#
Hey, what can you do?

(chorus)
   F#                   Ebm
On any other day i'd be blue eyes crying
C#sus2
I can tell the world that at least i'm trying
    F#                    Ebm             Bbm              (B)
The cloud is breaking, the sun is shining new for me and you
   F#                     Ebm
On any other day i might just go crazy
    C#sus2
The grace of knowin' that you're gonna save me
  F#            Ebm              G#
Maybe luck and love can pull us through

(verse)
C#sus2
On any other day i might just stay in bed
    F#                                               (G#)
Sit down in a sea of blankets pull em up over my head
Bbm
Catch a beer buzz in the morning just to get a little edge

(Ebm) G#

Then maybe just get up in time to do it all again
Ebm                                 G#
Hey, i like where this it's going, yeah, cause i know where it's been

(chorus)
   F#                   Ebm
On any other day i'd be blue eyes crying
C#sus2
I can tell the world that at least i'm trying
    F#                    Ebm             Bbm              B
The cloud is breaking, the sun is shining new for me and you
   F#                     Ebm
On any other day i might just go crazy
    C#sus2
The grace of knowin' that you're gonna save me
  F#            Ebm              G#
Maybe luck and love can pull us through
...
                F#
Ohh any other day

(solo)
Ebm   C#sus2    G#
    yeah yeah!!!

F#   Ebm  C#sus2  G#  Bsus2
e|--------------------------------------------------13-11-13b-13------------------|
b|---14-13-14-----14-13-14-16--14-13-14----14-13-14-------------------------------|
g|------------13------------------------13----------------------------------------|
d|--------------------------------------------------------------------------------|
a|--------------------------------------------------------------------------------|
e|--------------------------------------------------------------------------------|

e|---11-11-------------12b-10-10--------------------------------------------------|
b|-----------14-13-14-----------------14-14/13-13/11-11/9-9/7-7-------------------|
g|--------------------------------------------------------------------------------|
d|--------------------------------------------------------------------------------|
a|--------------------------------------------------------------------------------|
e|--------------------------------------------------------------------------------|

(verse)
C#sus2
Alarm clock rings, it's 6:45
  F#                                (G#)
I like waking up with you on my mind
Bbm                             G#   F#
Knowing that your saving me one more time

(chorus)
   F#                   Ebm
On any other day i'd be blue eyes crying
C#sus2
I can tell the world that at least i'm trying
    F#                    Ebm             Bbm              B
The cloud is breaking, the sun is shining new for me and you
   F#                     Ebm
On any other day i might just go crazy
    C#sus2
The grace of knowin' that you're gonna save me
  F#            Ebm              G#
Maybe luck and love can pull us through
...
                F#
Ohh any other day

Ebm   C#sus2    G#
    yeah yeah!!!
F#   Ebm  Bbm
Mmmmm  uoo ooo ooo ooo!!!
           F#  Ebm  C#sus2    G#

Any other day!!!
          F#   Ebm  Bbm   (B)
Any other day

(chorus)
   F#                   Ebm
On any other day i'd be blue eyes crying
C#sus2                            G#
I can tell the world that at least i'm trying
    F#                    Ebm             Bbm              B
The cloud is breaking, the sun is shining new for me and you... (till fade out)

(acordes entre parênteses, você deve tocar por um segundo)
exibições 16.745
Acordes para:
    Composição: Gordie Sampson / Jon Bon Jovi / Richie Sambora Colaboração e revisão:
    • Felipe Becker
    • John Neumann
    • Felipe Melachawças

    0 comentários

    mostrar mais comentários

    Conseguiu tocar?

    1 tocaram 0 ainda não

    Grave um vídeo tocando Any Other Day e mande pra gente!

    00:00 / 00:00
    outros vídeos desta música
    repetir qualidade Automático
    Outros vídeos desta música
    00:00 / 00:00
    Automático
    OK