Cifra Club

Bounce

Bon Jovi

Tab de baixo: Principal
exibições 1.418
Introdução 

Parte 01 de 01

G|----------------------------------------------|
D|----------------------------------------------|
A|----------------------------------------------|
E|----------------------------------------------|
B|-1-1-1-1--1-1-1-1--1-1-1-1--1-1-1-1-----------|

G|----------------------------------------------|
D|----------------------------------------------|
A|----------------------------------------------|
E|-6-6-6-6--6-6-6-6--4-4-4-4--4-4-4-4-----------|
B|-------------------------------------1--------|

Primeira parte

I been knocked down too many times...

Parte 01 de 02

G|----------------------------------------------|
D|----------------------------------------------|
A|----------------------------------------------|
E|----------------------------------------------|
B|-1-1-1-0-3-4--1-1-1-0-4--1-1-1-0-3-4----------|

G|----------------------------------------------|
D|----------------------------------------------|
A|-------1---------------------------1----------|
E|-----------------------------------------3----|
B|-1-1-----3-4-4--1-1-1-0-3-4--1-1-----3-4------|

Parte 02 de 02

G|----------------------------------------------|
D|----------------------------------------------|
A|----------------------------------------------|
E|-4-4-4-4--4-4-4-4---4-4-4-4--4-4-4-4----------|
B|----------------------------------------------|

G|----------------------------------------------|
D|----------------------------------------------|
A|----------------------------------------------|
E|-6-6-6-6--6-6-6-6---6-6-6-6--6-6-6-6----------|
B|----------------------------------------------|

Refrão

Bounce, bounce, nothing's gonna keep me...

parte 01 de 02 

G|----------------------------------------------|
D|----------------------------------------------|
A|----------------------------------------------|
E|----------------------------------------------|
B|-1-1-1-1--1-1-1-1--4-4-4-4--4-4-4-4-----------|






G|----------------------------------------------|
D|----------------------------------------------|
A|-------------------------------6-6------------|
E|-6-6-6-6--6-6-6-6--4-4-6-6-8-8----------------|
B|----------------------------------------------|

Parte 02 de 02

G|----------------------------------------------|
D|----------------------------------------------|
A|----------------------------------------------|
E|----------------------------------------------|
B|-1-1-1-1--1-1-1-1--4-4-4-4--4-4-4-4-----------|

G|----------------------------------------------|
D|----------------------------------------------|
A|----------------------------------------------|
E|-6-6-6-6--6-6-6-6--4-4-4-4--4-4-4-4-----------|
B|----------------------------------------------|

G|----------------------------------------------|
D|----------------------------------------------|
A|-----------------------3/15\------------------|
E|-4-4-4-4--4-4-4-4-----------------------------|
B|-------------------1--------------------------|

Segunda parte 

This ain't no game, I play it hard 

Parte 01 de 02

G|----------------------------------------------|
D|----------------------------------------------|
A|----------------------------------------------|
E|----------------------------------------------|
B|-1-1-1-0-3-4--1-1-1-0-4--1-1-1-0-3-4----------|

G|----------------------------------------------|
D|----------------------------------------------|
A|-------1--------------------------------------|
E|----------------------------------------------|
B|-1-1-----3-4-4--1-1-1-0-3-4--1-1--------------|

G|----------------------------------------------|
D|----------------------------------------------|
A|----------------------------------------------|
E|-6-6-6-6--6-6-6-6---6-6-6-6--6-6-6-6----------|
B|----------------------------------------------|

Parte 02 de 02

G|----------------------------------------------|
D|----------------------------------------------|
A|----------------------------------------------|
E|-4-4-4-4--4-4-4-4---4-4-4-4--4-4-4-4----------|
B|----------------------------------------------|

G|----------------------------------------------|
D|----------------------------------------------|
A|----------------------------------------------|
E|-6-6-6-6--6-6-6-6---6-6-6-6--6-6-6-6----------|
B|----------------------------------------------|


G|----------------------------------------------|
D|----------------------------------------------|
A|----------------------------------------------|
E|-6-6-6-6--------------------------------------|
B|----------------------------------------------|

Refrão 02

Bounce, bounce, nothing's gonna keep me...

Parte 01 de 02 

G|----------------------------------------------|
D|----------------------------------------------|
A|----------------------------------------------|
E|----------------------------------------------|
B|-1-1-1-1--1-1-1-1--4-4-4-4--4-4-4-4-----------|

G|----------------------------------------------|
D|----------------------------------------------|
A|-------------------------------6-6------------|
E|-6-6-6-6--6-6-6-6--4-4-6-6-8-8----------------|
B|----------------------------------------------|

Parte 02 de 02

G|----------------------------------------------|
D|----------------------------------------------|
A|----------------------------------------------|
E|----------------------------------------------|
B|-1-1-1-1--1-1-1-1--4-4-4-4--4-4-4-4-----------|

G|----------------------------------------------|
D|----------------------------------------------|
A|----------------------------------------------|
E|-6-6-6-6--6-6-6-6--4-4-4-4--4-4-4-4-----------|
B|----------------------------------------------|

G|----------------------------------------------|
D|----------------------------------------------|
A|----------------------------------------------|
E|-4-4-4-4--4-4-4-4-----------------------------|
B|----------------------------------------------|

Solo de guitarra

Parte 01 de 02

G|----------------------------------------------|
D|----------------------------------------------|
A|----------------------------------------------|
E|--------------------------------4-4-----------|
B|-1-1-1-1--1-1-1-1--4-4-4-4--4-4---------------|

G|----------------------------------------------|
D|----------------------------------------------|
A|-------------------------------6-6------------|
E|-6-6-6-6--6-6-6-6--4-4-6-6-8-8----------------|
B|----------------------------------------------|








parte 02 de 02

G|----------------------------------------------|
D|----------------------------------------------|
A|----------------------------------3-----------|
E|--------------------------------4-------------|
B|-1-1-1-1--1-1-1-1--4-4-4-4--4-4---------------|

G|----------------------------------------------|
D|----------------------------------------------|
A|----------------------------------------------|
E|-6-6-6-6--6-6-6-6--4-4-4-4--4-4-4-4-----------|
B|----------------------------------------------|

G|----------------------------------------------|
D|----------------------------------------------|
A|----------------------------------------------|
E|-4-4-4-4--4-4-4-4-----------------------------|
B|-------------------1--------------------------|

Terceira parte

Bring it on, I like it rough...

Parte 01 de 01

G|----------------------------------------------|
D|----------------------------------------------|
A|----------------------------------------------|
E|----------------------------------------------|
B|-1-1--1--1--1-1--1--1-------------------------|

Refrão 03

Bounce, bounce, nothing's gonna keep me...

Parte 01 de 06 

G|----------------------------------------------|
D|----------------------------------------------|
A|----------------------------------------------|
E|--------------------------------4-4-----------|
B|-1-1-1-1--1-1-1-1--4-4-4-4--4-4---------------|

G|----------------------------------------------|
D|----------------------------------------------|
A|-------------------------------6-6------------|
E|-6-6-6-6--6-6-6-6--4-4-6-6-8-8----------------|
B|----------------------------------------------|

Parte 02 de 06

G|----------------------------------------------|
D|----------------------------------------------|
A|----------------------------------3-----------|
E|--------------------------------4-------------|
B|-1-1-1-1--1-1-1-1--4-4-4-4--4-4---------------|

G|----------------------------------------------|
D|----------------------------------------------|
A|----------------------------------------------|
E|-6-6-6-6--6-6-6-6--4-4-4-4--4-4-4-4-----------|
B|----------------------------------------------|


Parte 03 de 06

G|----------------------------------------------|
D|----------------------------------------------|
A|----------------------------------------------|
E|--------------------------------4-4-----------|
B|-1-1-1-1--1-1-1-1--4-4-4-4--4-4---------------|

G|----------------------------------------------|
D|----------------------------------------------|
A|-------------------------------6-6------------|
E|-6-6-6-6--6-6-6-6--4-4-6-6-8-8----------------|
B|----------------------------------------------|

Parte 04 de 06

G|----------------------------------------------|
D|----------------------------------------------|
A|----------------------------------3-----------|
E|--------------------------------4-------------|
B|-1-1-1-1--1-1-1-1--4-4-4-4--4-4---------------|

G|----------------------------------------------|
D|----------------------------------------------|
A|----------------------------------------------|
E|-6-6-6-6--6-6-6-6--4-4-4-4--4-4-4-4-----------|
B|----------------------------------------------|

G|----------------------------------------------|
D|----------------------------------------------|
A|----------------------------------------------|
E|-4-4-4-4--4-4-4-4-----------------------------|
B|----------------------------------------------|

parte 05 de 06 

G|----------------------------------------------|
D|----------------------------------------------|
A|----------------------------------------------|
E|----------------------------------------------|
B|-1-1-1-1--1-1-1-1--4-4-4-4--4-4-4-4-----------|

G|----------------------------------------------|
D|----------------------------------------------|
A|----------------------------------------------|
E|-6-6-6-6--6-6-6-6--4-4-4-4-4-4-4-4------------|
B|----------------------------------------------|

Parte 06 de 06

G|----------------------------------------------|
D|----------------------------------------------|
A|----------------------------------------------|
E|----------------------------------------------|
B|-1-1-1-1--1-1-1-1--4-4-4-4--4-4-4-4-----------|

G|----------------------------------------------|
D|----------------------------------------------|
A|----------------------------------------------|
E|-6-6-6-6--6-6-6-6--4-4-4-4--4-4-4-4-----------|
B|------------------------------------1---------|
Composição: Billy Falcon / Jon Bon Jovi / Richie SamboraColaboração e revisão:
  • Ricardo Reis

0 comentários

    mostrar mais comentários

    Conseguiu tocar?

    0tocaram0ainda não

    Grave um vídeo tocando Bounce e mande pra gente!

    00:00 / 00:00
    outros vídeos desta música
    repetirqualidadeautomática
    Outro vídeos desta música
      00:00 / 00:00
      automática
      Capítulos
      • Tocando a música
      • Dicas Iniciais / Equipamentos
      • Introdução
      • Primeira Parte - Parte 1 de 2
      • Primeira Parte - Parte 2 de 2
      • Refrão - Parte 1 de 2
      • Refrão - Parte 2 de 2
      • Segunda Parte - Parte 1 de 2
      • Segunda Parte - Parte 2 de 2
      • Segundo Refrão - Parte 1 de 2
      • Segundo Refrão - Parte 2 de 2
      • Solo de Guitarra - Parte 1 de 2
      • Solo de Guitarra - Parte 2 de 2
      • Terceira Parte
      • Refrão - Parte 1 de 6
      • Refrão - Parte 2 de 6
      • Refrão - Parte 3 de 6
      • Refrão - Parte 4 de 6
      • Refrão - Parte 5 de 6
      • Refrão - Parte 6 de 6
      • Encerramento
      • Ficha Técnia
      OK