Cifra Club

Come On Up To Our House

Bon Jovi

Cifra: Principal (violão e guitarra)
Tom: F
Piano: F - C - Dm - Dm/C - Bb

Come on up to our house
Let us make you feel at home
Come on up to our house
I will leave the porch light on

F|- Dm - Bb

Solo:

E|------------------------------------------------------------------------
B|13--10------------------10--13-10-------------10--------------
G|----------12--10--12------------------12--10-------12---------
D|----------------------------------------------------------------12----
A|-----------------------------------------------------------------------
E|-----------------------------------------------------------------------

E|------------------------------------------------------------------------------
B|13--10------------------10--13-10---------------10------------------
G|-----------12--10--12-----------------12--10----------12------------
D|-------------------------------------------------------------------12--10-
A|-----------------------------------------------------------------------------
E|-----------------------------------------------------------------------------

        F                             Bb             Dm            F
I wish tonight would last forever and it would never end
                         Bb
We were introduced as strangers
         Dm                 F
Now we're leaving here as friends
       Dm                       Bb
Every word that you speak is a melody
       Dm                         Bb
As we're writing the songs of our lives
F                  C              Dm
Everyone knows we don't want to go home
Bb                       C    C7
But we can't stay here tonight

Refrão:
F      C       Dm    Dm/C
Come on up to our house
       Bb               F
Let us make you feel at home
F      C      Dm    Dm/C
Come on up to our house
       Bb                    F
I will leave the porch light on
        Dm               Bb
All are welcome at our table
        Dm               Bb
You can never stay too long
F      C      Dm     Dm/C
Come on up to out house
       Bb                    F
I will leave the porch light on


E|--------------------------------------------------------------------------
B|13--10------------------10--13-10--------------10---------------
G|-----------12--10--12-----------------12--10-------12-----------
D|--------------------------------------------------------------12--10--
A|-------------------------------------------------------------------------
E|-------------------------------------------------------------------------

          F                  Bb
You could tell me your life story
         Dm            F
I could finish every line
    F                        Bb
The one about hurt and the heartache
          Dm           F
It still gets me every time
      Dm                          Bb
Every word that you speak is the harmony
       Dm                     Bb
To the song that I'm singing inside
F         C         Dm            Dm/C
Everyone knows we don't want to go home
        Bb                C
But we can't stay here tonight



(Refrão)

Base Solo F - Dm - Bb

E|-------------------------------------------------------------------------------
B|---------------------10--13--15^17-15-15/6--8^-8^10p6----------
G|-----------10--12-------------------------------------------------7--------
D|-------10--------------------------------------------------------------------
A|8--10------------------------------------------------------------------------
E|-------------------------------------------------------------------------------

E|--------------------------17^18^17---15---------------
B|---15^17--15-----------------------------17-----------
G|-------------------12----------------------------17------
D|-------------------------------------------------------15--
A|-------------------------------------------------------------
E|-------------------------------------------------------------


I wish tonight could last forever
'Cause I ain't good at saying goodbye
Dm                      Dm/C
Everyone knows we don't want to go home
       Bb                C
But we can't stay here tonight

F     C       Dm     Dm/C
Come on up to our house
Bb                       F
Let us make you feel at home
F     C       Dm     Dm/C
Come on up to our house
Bb                           C
I will leave the porch light on
         Dm                Bb
For the restless and the weary
    Dm             Bb
You will never be alone
         Dm             Bb
All are welcome at our table
        Bb               C
You can never stay too long
F       C        Dm      Dm/C
So come on up to our house
       Bb                     C
I will leave the porch light on


E|--------------------------------------------------------------------
B|13--10-----------------10--13-10------------10-------------
G|-----------12--10--12---------------12--10------12---------
D|-----------------------------------------------------------12-----
A|--------------------------------------------------------------------
E|--------------------------------------------------------------------

(Come on up to our house)
(Let us make you feel at home)
Come on up to our house (come on up to our house)
(I will leave the porch light on)
Come on up to our house (come on up to our house)
(Let us make you feel at home)
Come on up to our house
(Come on up to our house)
exibições 481
Acordes para:
    Composição: John Shanks / Jon Bon Jovi Colaboração e revisão:
    • William Sgobi

    0 comentários

    mostrar mais comentários

    Conseguiu tocar?

    0 tocaram 0 ainda não

    Grave um vídeo tocando Come On Up To Our House e mande pra gente!

    00:00 / 00:00
    outros vídeos desta música
    repetir qualidade Automático
    Outros vídeos desta música
    00:00 / 00:00
    Automático
    OK